0
SECTION
2
HEADER
9
$INSUNITS
70
4
9
$ACADVER
1
AC1014
9
$HANDSEED
5
FFFF
0
ENDSEC
0
SECTION
2
TABLES
0
TABLE
2
VPORT
5
8
100
AcDbSymbolTable
0
ENDTAB
0
TABLE
2
LTYPE
5
5
100
AcDbSymbolTable
0
LTYPE
5
14
100
AcDbSymbolTableRecord
100
AcDbLinetypeTableRecord
2
BYBLOCK
70
0
0
LTYPE
5
15
100
AcDbSymbolTableRecord
100
AcDbLinetypeTableRecord
2
BYLAYER
70
0
0
ENDTAB
0
TABLE
2
LAYER
5
2
100
AcDbSymbolTable
70
2
0
LAYER
5
50
100
AcDbSymbolTableRecord
100
AcDbLayerTableRecord
2
0
70
0
6
CONTINUOUS
0
ENDTAB
0
TABLE
2
STYLE
5
3
100
AcDbSymbolTable
70
1
0
STYLE
5
11
100
AcDbSymbolTableRecord
100
AcDbTextStyleTableRecord
2
STANDARD
70
0
0
ENDTAB
0
TABLE
2
VIEW
5
6
100
AcDbSymbolTable
70
0
0
ENDTAB
0
TABLE
2
UCS
5
7
100
AcDbSymbolTable
70
0
0
ENDTAB
0
TABLE
2
APPID
5
9
100
AcDbSymbolTable
70
2
0
APPID
5
12
100
AcDbSymbolTableRecord
100
AcDbRegAppTableRecord
2
ACAD
70
0
0
ENDTAB
0
TABLE
2
DIMSTYLE
5
A
100
AcDbSymbolTable
70
1
0
ENDTAB
0
TABLE
2
BLOCK_RECORD
5
1
100
AcDbSymbolTable
70
1
0
BLOCK_RECORD
5
1F
100
AcDbSymbolTableRecord
100
AcDbBlockTableRecord
2
*MODEL_SPACE
0
BLOCK_RECORD
5
1B
100
AcDbSymbolTableRecord
100
AcDbBlockTableRecord
2
*PAPER_SPACE
0
ENDTAB
0
ENDSEC
0
SECTION
2
BLOCKS
0
BLOCK
5
20
100
AcDbEntity
100
AcDbBlockBegin
2
*MODEL_SPACE
0
ENDBLK
5
21
100
AcDbEntity
100
AcDbBlockEnd
0
BLOCK
5
1C
100
AcDbEntity
100
AcDbBlockBegin
2
*PAPER_SPACE
0
ENDBLK
5
1D
100
AcDbEntity
100
AcDbBlockEnd
0
ENDSEC
0
SECTION
2
ENTITIES
0
LWPOLYLINE
5
100
100
AcDbEntity
8
0
100
AcDbPolyline
90
6
70
1
43
0.0
10
150
20
90
10
150
20
0
10
75
20
0
10
0
20
0
10
0
20
90
10
75
20
90
0
CIRCLE
5
101
100
AcDbEntity
8
0
100
AcDbCircle
10
35.5
20
45
30
0
40
6.0000000000000009
0
CIRCLE
5
102
100
AcDbEntity
8
0
100
AcDbCircle
10
114.50000000000001
20
45
30
0
40
27.748000000000008
0
LWPOLYLINE
5
103
100
AcDbEntity
8
0
100
AcDbPolyline
90
8
70
1
43
0.0
10
-79.999999999999957
20
85
10
-9.9999999999999645
20
84.999999999999872
10
-9.9999999999999645
20
44.999999999999915
10
-10.000000000000018
20
4.9999999999999005
10
-80
20
4.999999999999921
10
-150
20
5
10
-149.99999999999997
20
45
10
-149.99999999999997
20
85
0
CIRCLE
5
104
100
AcDbEntity
8
0
100
AcDbCircle
10
-19.999999999999964
20
74.999999999999844
30
0
40
1
0
LWPOLYLINE
5
105
100
AcDbEntity
8
0
100
AcDbPolyline
90
8
70
1
43
0.0
10
-4.9999999999999645
20
89.999999999999872
10
-79.999999999999957
20
90
10
-154.99999999999994
20
90
10
-154.99999999999997
20
45
10
-155
20
0
10
-80
20
-7.2164496600635163e-14
10
-5.0000000000000178
20
-1.0658141036401503e-13
10
-5
20
44.999999999999915
0
CIRCLE
5
106
100
AcDbEntity
8
0
100
AcDbCircle
10
-139.99999999999994
20
74.999999999999901
30
0
40
1
0
CIRCLE
5
107
100
AcDbEntity
8
0
100
AcDbCircle
10
-139.99999999999997
20
14.999999999999984
30
0
40
1
0
CIRCLE
5
108
100
AcDbEntity
8
0
100
AcDbCircle
10
-20.000000000000018
20
14.999999999999902
30
0
40
1
0
LWPOLYLINE
5
109
100
AcDbEntity
8
0
100
AcDbPolyline
90
96
70
1
43
0.0
10
-49.999999999995993
20
-49.999999999992049
10
-50.000000000000014
20
-55.000000000000767
10
-45.000000000001911
20
-55.000000000000682
10
-44.99999999999978
20
-49.99999999999207
10
-39.999999999999616
20
-49.999999999992077
10
-40.000000000001762
20
-55.000000000000611
10
-35.000000000003659
20
-55.000000000000533
10
-35.000000000001535
20
-49.999999999992085
10
-30.000000000001357
20
-49.999999999992099
10
-30.00000000000351
20
-55.000000000000441
10
-25.0000000000054
20
-55.000000000000369
10
-25.000000000003297
20
-49.999999999992106
10
-20.000000000003126
20
-49.999999999992113
10
-20.000000000005258
20
-55.000000000000298
10
-15.000000000007141
20
-55.000000000000227
10
-15.000000000007132
20
-50.000000000000071
10
-4.9999999999980371
20
-49.99999999999325
10
-4.9999999999980105
20
-44.999999999997428
10
-9.9999999999900346
20
-44.999999999995438
10
-9.999999999990008
20
-39.999999999995431
10
-5
20
-39.999999999997648
10
-4.9999999999999822
20
-35.000000000000156
10
-9.9999999999919975
20
-34.999999999997279
10
-9.9999999999919797
20
-30.000000000000007
10
-9.9999999999899902
20
-25.000000000002743
10
-5
20
-24.99999999999984
10
-5
20
-20.000000000001535
10
-9.999999999990008
20
-20.000000000004587
10
-9.9999999999900169
20
-15.000000000004583
10
-4.9999999999979927
20
-15.000000000002576
10
-4.9999999999980371
20
-10.000000000002405
10
-15.000000000007141
20
-10.000000000000245
10
-15.000000000007141
20
-4.9999999999997868
10
-20.000000000005258
20
-4.9999999999997158
10
-20.000000000003126
20
-10.000000000007894
10
-25.000000000003297
20
-10.000000000007912
10
-25.0000000000054
20
-4.9999999999996403
10
-30.00000000000351
20
-4.9999999999995559
10
-30.000000000001357
20
-10.000000000007912
10
-35.000000000001535
20
-10.000000000007923
10
-35.000000000003659
20
-4.9999999999994849
10
-40.000000000001776
20
-4.999999999999396
10
-39.999999999999616
20
-10.00000000000793
10
-44.99999999999978
20
-10.00000000000794
10
-45.000000000001918
20
-4.9999999999993205
10
-50.000000000000036
20
-4.9999999999992495
10
-49.999999999996007
20
-10.000000000007955
10
-79.999999999996007
20
-10.000000000008001
10
-109.99999999999601
20
-10.000000000007947
10
-109.99999999999999
20
-4.999999999999245
10
-114.99999999999808
20
-4.9999999999993161
10
-114.99999999999224
20
-10.000000000007931
10
-119.99999999999238
20
-10.000000000007924
10
-119.99999999999824
20
-4.999999999999396
10
-124.99999999999633
20
-4.9999999999994671
10
-124.99999999999048
20
-10.000000000007923
10
-129.99999999999065
20
-10.000000000007912
10
-129.99999999999648
20
-4.9999999999995515
10
-134.9999999999946
20
-4.999999999999627
10
-134.99999999998869
20
-10.000000000007905
10
-139.99999999998889
20
-10.000000000007889
10
-139.99999999999474
20
-4.9999999999997069
10
-144.99999999999287
20
-4.9999999999997868
10
-144.99999999999287
20
-9.9999999999996589
10
-155.00000000000196
20
-10.000000000002405
10
-155.00000000000199
20
-15.000000000002576
10
-150.00000000000199
20
-15.000000000004574
10
-150.00000000000202
20
-20.000000000004576
10
-155
20
-20.000000000002352
10
-154.99999999999798
20
-25.000000000002519
10
-150.00000000000202
20
-25.000000000002732
10
-150.00000000000003
20
-30
10
-150.00000000000003
20
-34.999999999997264
10
-155
20
-34.999999999997485
10
-155
20
-39.999999999997648
10
-150.00000000000199
20
-39.999999999995424
10
-150.00000000000199
20
-44.999999999995424
10
-155.00000000000199
20
-44.999999999997428
10
-155.00000000000196
20
-49.999999999997584
10
-144.99999999999287
20
-50.000000000000341
10
-144.99999999999287
20
-55.000000000000213
10
-139.99999999999474
20
-55.000000000000291
10
-139.99999999998889
20
-49.999999999992113
10
-134.99999999998869
20
-49.999999999992099
10
-134.9999999999946
20
-55.000000000000369
10
-129.99999999999648
20
-55.000000000000441
10
-129.99999999999065
20
-49.999999999992085
10
-124.99999999999048
20
-49.999999999992077
10
-124.99999999999633
20
-55.000000000000533
10
-119.99999999999824
20
-55.000000000000604
10
-119.9999999999924
20
-49.999999999992077
10
-114.99999999999224
20
-49.99999999999207
10
-114.99999999999808
20
-55.000000000000682
10
-109.99999999999999
20
-55.000000000000753
10
-109.99999999999601
20
-49.999999999992049
10
-79.999999999996007
20
-49.999999999991999
0
LWPOLYLINE
5
110
100
AcDbEntity
8
0
100
AcDbPolyline
90
96
70
1
43
0.0
10
150.00000000000199
20
-44.999999999997428
10
150.00000000000196
20
-49.99999999999325
10
139.99999999999287
20
-50.000000000000071
10
139.99999999999287
20
-55.000000000000227
10
134.99999999999474
20
-55.000000000000298
10
134.99999999999687
20
-49.999999999992113
10
129.9999999999967
20
-49.999999999992106
10
129.9999999999946
20
-55.000000000000369
10
124.99999999999648
20
-55.000000000000441
10
124.99999999999865
20
-49.999999999992099
10
119.99999999999847
20
-49.999999999992085
10
119.99999999999633
20
-55.000000000000533
10
114.99999999999824
20
-55.000000000000611
10
115.0000000000004
20
-49.999999999992077
10
110.00000000000021
20
-49.99999999999207
10
109.99999999999808
20
-55.000000000000682
10
104.99999999999999
20
-55.000000000000767
10
105.00000000000401
20
-49.999999999992049
10
75.000000000003993
20
-49.999999999991999
10
45.000000000003993
20
-49.999999999992049
10
45.000000000000014
20
-55.000000000000753
10
40.000000000001918
20
-55.000000000000682
10
40.000000000007759
20
-49.99999999999207
10
35.000000000007603
20
-49.999999999992077
10
35.000000000001762
20
-55.000000000000604
10
30.000000000003659
20
-55.000000000000533
10
30.000000000009521
20
-49.999999999992077
10
25.000000000009344
20
-49.999999999992085
10
25.000000000003517
20
-55.000000000000441
10
20.0000000000054
20
-55.000000000000369
10
20.000000000011298
20
-49.999999999992099
10
15.00000000001112
20
-49.999999999992113
10
15.000000000005258
20
-55.000000000000291
10
10.000000000007141
20
-55.000000000000213
10
10.000000000007141
20
-50.000000000000341
10
-1.9539925233402755e-12
20
-49.999999999997584
10
-1.9895196601282805e-12
20
-44.999999999997428
10
4.9999999999980105
20
-44.999999999995424
10
4.9999999999980105
20
-39.999999999995424
10
0
20
-39.999999999997648
10
0
20
-34.999999999997485
10
4.9999999999999822
20
-34.999999999997264
10
4.9999999999999822
20
-30
10
4.9999999999979927
20
-25.000000000002732
10
2.0250467969162855e-12
20
-25.000000000002519
10
0
20
-20.000000000002352
10
4.9999999999979927
20
-20.000000000004576
10
4.9999999999980105
20
-15.000000000004574
10
-1.9895196601282805e-12
20
-15.000000000002576
10
-1.9539925233402755e-12
20
-10.000000000002405
10
10.000000000007141
20
-9.9999999999996589
10
10.000000000007141
20
-4.9999999999997868
10
15.000000000005258
20
-4.9999999999997069
10
15.00000000001112
20
-10.000000000007889
10
20.000000000011298
20
-10.000000000007905
10
20.0000000000054
20
-4.999999999999627
10
25.000000000003517
20
-4.9999999999995515
10
25.000000000009344
20
-10.000000000007912
10
30.000000000009521
20
-10.000000000007923
10
30.000000000003659
20
-4.9999999999994671
10
35.000000000001762
20
-4.999999999999396
10
35.000000000007617
20
-10.000000000007924
10
40.000000000007759
20
-10.000000000007931
10
40.000000000001918
20
-4.9999999999993161
10
45.000000000000014
20
-4.999999999999245
10
45.000000000003993
20
-10.000000000007947
10
75.000000000003993
20
-10.000000000008001
10
105.00000000000399
20
-10.000000000007955
10
104.99999999999997
20
-4.9999999999992495
10
109.99999999999808
20
-4.9999999999993205
10
110.00000000000021
20
-10.00000000000794
10
115.0000000000004
20
-10.00000000000793
10
114.99999999999822
20
-4.999999999999396
10
119.99999999999633
20
-4.9999999999994849
10
119.99999999999847
20
-10.000000000007923
10
124.99999999999865
20
-10.000000000007912
10
124.99999999999648
20
-4.9999999999995559
10
129.9999999999946
20
-4.9999999999996403
10
129.9999999999967
20
-10.000000000007912
10
134.99999999999687
20
-10.000000000007894
10
134.99999999999474
20
-4.9999999999997158
10
139.99999999999287
20
-4.9999999999997868
10
139.99999999999287
20
-10.000000000000245
10
150.00000000000196
20
-10.000000000002405
10
150.00000000000202
20
-15.000000000002576
10
145.00000000000998
20
-15.000000000004583
10
145.00000000000998
20
-20.000000000004587
10
150
20
-20.000000000001535
10
150
20
-24.99999999999984
10
145.00000000001
20
-25.000000000002743
10
145.00000000000801
20
-30.000000000000007
10
145.00000000000799
20
-34.999999999997279
10
150.00000000000003
20
-35.000000000000156
10
150
20
-39.999999999997648
10
145.00000000000998
20
-39.999999999995431
10
145.00000000000998
20
-44.999999999995438
0
LWPOLYLINE
5
111
100
AcDbEntity
8
0
100
AcDbPolyline
90
104
70
1
43
0.0
10
105.00000156462193
20
-209.99999992549419
10
110.00000163912773
20
-209.99999992549419
10
110.00000163912773
20
-215
10
115.00000171363355
20
-215
10
115.00000171363355
20
-210
10
120.00000178813934
20
-210
10
120.00000178813934
20
-215
10
125.00000186264515
20
-215
10
125.00000186264515
20
-210
10
130.00000193715096
20
-210
10
130.00000193715096
20
-215
10
135.00000201165676
20
-215
10
135.00000201165676
20
-210
10
140.00000223517418
20
-210
10
140.00000223517418
20
-215
10
150.00000223517418
20
-214.99999999999997
10
150.00000223517418
20
-204.99999985098836
10
145.00000216066837
20
-204.99999985098836
10
145.00000216066837
20
-199.99999977648258
10
150.00000223517418
20
-199.99999977648258
10
150.00000223517418
20
-194.99999970197678
10
145.00000216066837
20
-194.99999970197678
10
145.00000216066837
20
-189.99999962747097
10
150.00000223517418
20
-189.99999962747097
10
150.00000223517418
20
-169.99999999999997
10
150.00000223517418
20
-150.000000372529
10
145.00000216066837
20
-150.000000372529
10
145.00000216066837
20
-145.0000002980232
10
150.00000223517418
20
-145.0000002980232
10
150.00000223517418
20
-140.00000022351739
10
145.00000216066837
20
-140.00000022351739
10
145.00000216066837
20
-135.00000014901158
10
150.00000223517418
20
-135.00000014901158
10
150.00000223517418
20
-124.99999999999999
10
140.00000223517418
20
-124.99999999999999
10
140.00000223517418
20
-129.99999999999997
10
135.00000201165676
20
-129.99999999999997
10
135.00000201165676
20
-124.99999999999999
10
130.00000193715096
20
-124.99999999999999
10
130.00000193715096
20
-129.99999999999997
10
125.00000186264515
20
-129.99999999999997
10
125.00000186264515
20
-124.99999999999999
10
120.00000178813934
20
-124.99999999999999
10
120.00000178813934
20
-130
10
115.00000171363355
20
-130
10
115.00000171363355
20
-125
10
110.00000163912773
20
-124.99999999999999
10
110.00000163912773
20
-130.00000007450583
10
105.00000156462193
20
-130.00000007450583
10
105.00000156462193
20
-124.99999999999999
10
75.000001117587061
20
-124.99999999999999
10
45.000000670552254
20
-124.99999999999999
10
45.000000670552254
20
-130.00000007450583
10
40.000000596046441
20
-130.00000007450583
10
40.000000596046441
20
-124.99999999999999
10
35.000000521540635
20
-125
10
35.000000521540635
20
-130
10
30.000000447034829
20
-130
10
30.000000447034829
20
-125
10
25.00000037252903
20
-125
10
25.00000037252903
20
-130
10
20.000000298023217
20
-130
10
20.000000298023217
20
-125
10
15.000000223517409
20
-125
10
15.000000223517409
20
-130
10
9.9999999999999876
20
-130
10
9.9999999999999876
20
-125
10
-1.0658141036401504e-14
20
-125
10
-7.7715611723760958e-15
20
-135.00000014901161
10
5.000000074505798
20
-135.00000014901161
10
5.0000000745057989
20
-140.00000022351742
10
-6.6613381477509392e-15
20
-140.00000022351742
10
-5.5511151231257827e-15
20
-145.0000002980232
10
5.0000000745058006
20
-145.0000002980232
10
5.0000000745058015
20
-150.00000037252903
10
-4.4408920985006262e-15
20
-150.00000037252903
10
-6.1629758220391536e-32
20
-170
10
0
20
-189.99999962747097
10
5.0000000745058069
20
-189.99999962747097
10
5.0000000745058069
20
-194.99999970197678
10
0
20
-194.99999970197678
10
0
20
-199.99999977648258
10
5.0000000745058069
20
-199.99999977648258
10
5.0000000745058069
20
-204.99999985098839
10
0
20
-204.99999985098839
10
0
20
-215
10
10
20
-215
10
10
20
-210
10
15.000000223517418
20
-210
10
15.000000223517418
20
-215
10
20.000000298023227
20
-215
10
20.000000298023227
20
-210
10
25.00000037252903
20
-210
10
25.00000037252903
20
-215
10
30.000000447034839
20
-215
10
30.000000447034839
20
-210
10
35.000000521540642
20
-210
10
35.000000521540642
20
-215
10
40.000000596046455
20
-215
10
40.000000596046455
20
-209.99999992549419
10
45.000000670552254
20
-209.99999992549419
10
45.000000670552254
20
-215
10
75.00000111758709
20
-215
10
105.00000156462193
20
-215
0
LWPOLYLINE
5
112
100
AcDbEntity
8
0
100
AcDbPolyline
90
104
70
1
43
0.0
10
-139.99999977648258
20
-130
10
-145.00000000000003
20
-130
10
-145.00000000000003
20
-125
10
-155.00000000000003
20
-125
10
-155
20
-135.00000014901161
10
-149.99999992549419
20
-135.00000014901161
10
-149.99999992549419
20
-140.00000022351742
10
-155
20
-140.00000022351742
10
-155
20
-145.0000002980232
10
-149.99999992549419
20
-145.0000002980232
10
-149.99999992549419
20
-150.00000037252903
10
-155
20
-150.00000037252903
10
-155
20
-170
10
-155
20
-189.99999962747097
10
-149.99999992549419
20
-189.99999962747097
10
-149.99999992549419
20
-194.99999970197678
10
-155
20
-194.99999970197678
10
-155
20
-199.99999977648258
10
-149.99999992549419
20
-199.99999977648258
10
-149.99999992549419
20
-204.99999985098839
10
-155
20
-204.99999985098839
10
-155
20
-215
10
-145
20
-215
10
-145
20
-210
10
-139.99999977648258
20
-210
10
-139.99999977648258
20
-215
10
-134.99999970197678
20
-215
10
-134.99999970197678
20
-210
10
-129.99999962747097
20
-210
10
-129.99999962747097
20
-215
10
-124.99999955296516
20
-215
10
-124.99999955296516
20
-210
10
-119.99999947845936
20
-210
10
-119.99999947845936
20
-215
10
-114.99999940395355
20
-215
10
-114.99999940395355
20
-209.99999992549419
10
-109.99999932944775
20
-209.99999992549419
10
-109.99999932944775
20
-215
10
-79.99999888241291
20
-215
10
-49.999998435378075
20
-215
10
-49.999998435378075
20
-209.99999992549419
10
-44.999998360872269
20
-209.99999992549419
10
-44.999998360872269
20
-215
10
-39.999998286366448
20
-215
10
-39.999998286366448
20
-210
10
-34.999998211860657
20
-210
10
-34.999998211860657
20
-215
10
-29.999998137354851
20
-215
10
-29.999998137354851
20
-210
10
-24.999998062849045
20
-210
10
-24.999998062849045
20
-215
10
-19.999997988343239
20
-215
10
-19.999997988343239
20
-210
10
-14.999997764825821
20
-210
10
-14.999997764825821
20
-215
10
-4.9999977648258209
20
-214.99999999999997
10
-4.9999977648258209
20
-204.99999985098836
10
-9.9999978393316269
20
-204.99999985098836
10
-9.9999978393316269
20
-199.99999977648258
10
-4.9999977648258209
20
-199.99999977648258
10
-4.9999977648258209
20
-194.99999970197678
10
-9.9999978393316269
20
-194.99999970197678
10
-9.9999978393316269
20
-189.99999962747097
10
-4.9999977648258209
20
-189.99999962747097
10
-4.9999977648258209
20
-169.99999999999997
10
-4.9999977648258209
20
-150.000000372529
10
-9.9999978393316269
20
-150.000000372529
10
-9.9999978393316269
20
-145.0000002980232
10
-4.9999977648258209
20
-145.0000002980232
10
-4.9999977648258209
20
-140.00000022351739
10
-9.9999978393316269
20
-140.00000022351739
10
-9.9999978393316269
20
-135.00000014901158
10
-4.9999977648258209
20
-135.00000014901158
10
-4.9999977648258209
20
-124.99999999999999
10
-14.999997764825821
20
-124.99999999999999
10
-14.999997764825821
20
-129.99999999999997
10
-19.999997988343239
20
-129.99999999999997
10
-19.999997988343239
20
-124.99999999999999
10
-24.999998062849045
20
-124.99999999999999
10
-24.999998062849045
20
-129.99999999999997
10
-29.999998137354851
20
-129.99999999999997
10
-29.999998137354851
20
-124.99999999999999
10
-34.999998211860657
20
-124.99999999999999
10
-34.999998211860657
20
-130
10
-39.999998286366448
20
-130
10
-39.999998286366448
20
-125
10
-44.999998360872269
20
-124.99999999999999
10
-44.999998360872269
20
-130.00000007450583
10
-49.999998435378075
20
-130.00000007450583
10
-49.999998435378075
20
-124.99999999999999
10
-79.999998882412939
20
-124.99999999999999
10
-109.99999932944775
20
-124.99999999999999
10
-109.99999932944775
20
-130.00000007450583
10
-114.99999940395355
20
-130.00000007450583
10
-114.99999940395355
20
-124.99999999999999
10
-119.99999947845936
20
-125
10
-119.99999947845936
20
-130
10
-124.99999955296516
20
-130
10
-124.99999955296516
20
-125
10
-129.99999962747097
20
-125
10
-129.99999962747097
20
-130
10
-134.99999970197678
20
-130
10
-134.99999970197678
20
-125
10
-139.99999977648258
20
-125
0
LWPOLYLINE
5
113
100
AcDbEntity
8
0
100
AcDbPolyline
90
64
70
1
43
0.0
10
-145
20
-105
10
-150
20
-105
10
-150
20
-100
10
-155
20
-100
10
-155
20
-95
10
-150
20
-95
10
-150
20
-90
10
-155
20
-90
10
-155
20
-85
10
-155
20
-80
10
-150
20
-80
10
-150
20
-75
10
-155
20
-75
10
-155
20
-70
10
-150
20
-70
10
-150
20
-65
10
-145
20
-65
10
-145
20
-60.000000000000014
10
-140
20
-60
10
-140
20
-65
10
-135
20
-65
10
-135
20
-60
10
-130
20
-60
10
-130
20
-65
10
-110
20
-65
10
-90
20
-65
10
-90
20
-60
10
-85
20
-60
10
-85
20
-65
10
-80
20
-65
10
-80
20
-60
10
-75
20
-60.000000000000014
10
-75
20
-65
10
-70
20
-65
10
-70
20
-70
10
-65
20
-70
10
-65
20
-75
10
-70
20
-75
10
-70
20
-80
10
-65
20
-80
10
-65
20
-85
10
-65
20
-90
10
-70
20
-90
10
-70
20
-95
10
-65
20
-95
10
-65
20
-100
10
-70
20
-100
10
-70
20
-105
10
-75
20
-105
10
-75
20
-109.99999999999999
10
-80
20
-110
10
-80
20
-105
10
-85
20
-105
10
-85
20
-110
10
-90
20
-110
10
-90
20
-105
10
-110
20
-105
10
-130
20
-105
10
-130
20
-110
10
-135
20
-110
10
-135
20
-105
10
-140
20
-105
10
-140
20
-110
10
-145
20
-109.99999999999999
0
LWPOLYLINE
5
114
100
AcDbEntity
8
0
100
AcDbPolyline
90
64
70
1
43
0.0
10
9.9999999999999982
20
-65
10
4.9999999999999991
20
-65
10
4.9999999999999991
20
-70
10
1.3686494623894265e-23
20
-70
10
5.5511151231257827e-16
20
-75
10
4.9999999999999991
20
-75
10
4.9999999999999991
20
-80
10
0
20
-80
10
0
20
-85
10
0
20
-90
10
4.9999999999999991
20
-90
10
4.9999999999999991
20
-95
10
3.0616171347333289e-16
20
-95
10
0
20
-100
10
4.9999999999999991
20
-100
10
4.9999999999999991
20
-105
10
9.9999999999999982
20
-105
10
10
20
-109.99999999999999
10
15
20
-110
10
15
20
-105
10
20
20
-105
10
20
20
-110
10
25
20
-110
10
25
20
-105
10
45
20
-105
10
65
20
-105
10
65
20
-110
10
70
20
-110
10
70
20
-105
10
75
20
-105
10
75
20
-110
10
80
20
-109.99999999999999
10
80
20
-105
10
85
20
-105
10
85
20
-100
10
90
20
-100
10
90
20
-95
10
85
20
-95
10
85
20
-90
10
90
20
-90
10
90
20
-85
10
90
20
-80
10
85
20
-80
10
85
20
-75
10
90
20
-75
10
90
20
-70
10
85
20
-70
10
85
20
-65
10
80
20
-65
10
80
20
-60.000000000000014
10
75
20
-60
10
75
20
-65
10
70
20
-65
10
70
20
-60
10
65
20
-60
10
65
20
-65
10
45
20
-65
10
25
20
-65
10
25
20
-60
10
20
20
-60
10
20
20
-65
10
15
20
-65
10
15
20
-60
10
10
20
-60.000000000000014
0
ENDSEC
0
SECTION
2
OBJECTS
0
DICTIONARY
5
C
100
AcDbDictionary
3
ACAD_GROUP
350
D
3
ACAD_MLINESTYLE
350
17
0
DICTIONARY
5
D
100
AcDbDictionary
0
DICTIONARY
5
1A
330
C
100
AcDbDictionary
0
DICTIONARY
5
17
100
AcDbDictionary
0
ENDSEC
0
EOF
