0
SECTION
2
HEADER
9
$INSUNITS
70
4
9
$ACADVER
1
AC1014
9
$HANDSEED
5
FFFF
0
ENDSEC
0
SECTION
2
TABLES
0
TABLE
2
VPORT
5
8
100
AcDbSymbolTable
0
ENDTAB
0
TABLE
2
LTYPE
5
5
100
AcDbSymbolTable
0
LTYPE
5
14
100
AcDbSymbolTableRecord
100
AcDbLinetypeTableRecord
2
BYBLOCK
70
0
0
LTYPE
5
15
100
AcDbSymbolTableRecord
100
AcDbLinetypeTableRecord
2
BYLAYER
70
0
0
ENDTAB
0
TABLE
2
LAYER
5
2
100
AcDbSymbolTable
70
2
0
LAYER
5
50
100
AcDbSymbolTableRecord
100
AcDbLayerTableRecord
2
0
70
0
6
CONTINUOUS
0
ENDTAB
0
TABLE
2
STYLE
5
3
100
AcDbSymbolTable
70
1
0
STYLE
5
11
100
AcDbSymbolTableRecord
100
AcDbTextStyleTableRecord
2
STANDARD
70
0
0
ENDTAB
0
TABLE
2
VIEW
5
6
100
AcDbSymbolTable
70
0
0
ENDTAB
0
TABLE
2
UCS
5
7
100
AcDbSymbolTable
70
0
0
ENDTAB
0
TABLE
2
APPID
5
9
100
AcDbSymbolTable
70
2
0
APPID
5
12
100
AcDbSymbolTableRecord
100
AcDbRegAppTableRecord
2
ACAD
70
0
0
ENDTAB
0
TABLE
2
DIMSTYLE
5
A
100
AcDbSymbolTable
70
1
0
ENDTAB
0
TABLE
2
BLOCK_RECORD
5
1
100
AcDbSymbolTable
70
1
0
BLOCK_RECORD
5
1F
100
AcDbSymbolTableRecord
100
AcDbBlockTableRecord
2
*MODEL_SPACE
0
BLOCK_RECORD
5
1B
100
AcDbSymbolTableRecord
100
AcDbBlockTableRecord
2
*PAPER_SPACE
0
ENDTAB
0
ENDSEC
0
SECTION
2
BLOCKS
0
BLOCK
5
20
100
AcDbEntity
100
AcDbBlockBegin
2
*MODEL_SPACE
0
ENDBLK
5
21
100
AcDbEntity
100
AcDbBlockEnd
0
BLOCK
5
1C
100
AcDbEntity
100
AcDbBlockBegin
2
*PAPER_SPACE
0
ENDBLK
5
1D
100
AcDbEntity
100
AcDbBlockEnd
0
ENDSEC
0
SECTION
2
ENTITIES
0
LINE
5
100
100
AcDbEntity
8
0
100
AcDbLine
10
4.0388135229331352
20
218.47628942633179
30
0
11
53.838813522937272
21
189.72424602068605
31
0
0
LINE
5
101
100
AcDbEntity
8
0
100
AcDbLine
10
28.93881352293711
20
175.34822431786432
30
0
11
6.4507836940211027e-31
21
158.6403925403655
31
0
0
LINE
5
102
100
AcDbEntity
8
0
100
AcDbLine
10
7.80956259095688e-31
20
192.05605609536042
30
0
11
4.0388135229372679
21
189.72424602068605
31
0
0
LINE
5
103
100
AcDbEntity
8
0
100
AcDbLine
10
4.0388135229372679
20
189.72424602068605
30
0
11
4.0388135229376232
21
132.22015920939867
31
0
0
LINE
5
104
100
AcDbEntity
8
0
100
AcDbLine
10
53.838813522937272
20
189.72424602068605
30
0
11
53.83881352293713
21
132.22015920939899
31
0
0
LINE
5
105
100
AcDbEntity
8
0
100
AcDbLine
10
28.938813522932918
20
232.85231112915338
30
0
11
28.93881352293711
21
175.34822431786432
31
0
0
LINE
5
106
100
AcDbEntity
8
0
100
AcDbLine
10
78.738813522936582
20
232.85231112915145
30
0
11
78.738813522937107
21
175.34822431786432
31
0
0
LINE
5
107
100
AcDbEntity
8
0
100
AcDbLine
10
103.63881352293728
20
189.72424602068605
30
0
11
103.63881352293762
21
132.22015920939867
31
0
0
LINE
5
108
100
AcDbEntity
8
0
100
AcDbLine
10
128.53881352293291
20
232.85231112915338
30
0
11
128.53881352293712
21
175.34822431786432
31
0
0
LINE
5
109
100
AcDbEntity
8
0
100
AcDbLine
10
153.43881352293727
20
189.72424602068605
30
0
11
153.43881352293715
21
132.22015920939899
31
0
0
LINE
5
110
100
AcDbEntity
8
0
100
AcDbLine
10
178.33881352293659
20
232.85231112915145
30
0
11
178.33881352293713
21
175.34822431786432
31
0
0
LINE
5
111
100
AcDbEntity
8
0
100
AcDbLine
10
203.23881352293728
20
189.72424602068605
30
0
11
203.23881352293765
21
132.22015920939867
31
0
0
LINE
5
112
100
AcDbEntity
8
0
100
AcDbLine
10
228.13881352293294
20
232.85231112915338
30
0
11
228.13881352293714
21
175.34822431786432
31
0
0
LINE
5
113
100
AcDbEntity
8
0
100
AcDbLine
10
253.03881352293729
20
189.72424602068605
30
0
11
253.03881352293715
21
132.22015920939899
31
0
0
LINE
5
114
100
AcDbEntity
8
0
100
AcDbLine
10
277.93881352293658
20
232.85231112915145
30
0
11
277.93881352293715
21
175.34822431786432
31
0
0
LINE
5
115
100
AcDbEntity
8
0
100
AcDbLine
10
302.8388135229373
20
189.72424602068605
30
0
11
302.83881352293764
21
132.22015920939867
31
0
0
LINE
5
116
100
AcDbEntity
8
0
100
AcDbLine
10
327.73881352293296
20
232.85231112915338
30
0
11
327.73881352293711
21
175.34822431786432
31
0
0
LINE
5
117
100
AcDbEntity
8
0
100
AcDbLine
10
352.63881352293731
20
189.72424602068605
30
0
11
352.63881352293714
21
132.22015920939899
31
0
0
LINE
5
118
100
AcDbEntity
8
0
100
AcDbLine
10
377.53881352293661
20
232.85231112915145
30
0
11
377.53881352293718
21
175.34822431786432
31
0
0
LINE
5
119
100
AcDbEntity
8
0
100
AcDbLine
10
402.43881352293727
20
189.72424602068605
30
0
11
402.43881352293772
21
132.22015920939867
31
0
0
LINE
5
120
100
AcDbEntity
8
0
100
AcDbLine
10
427.33881352293292
20
232.85231112915338
30
0
11
427.33881352293713
21
175.34822431786432
31
0
0
LINE
5
121
100
AcDbEntity
8
0
100
AcDbLine
10
452.23881352293733
20
189.72424602068605
30
0
11
452.23881352293716
21
132.22015920939899
31
0
0
LINE
5
122
100
AcDbEntity
8
0
100
AcDbLine
10
477.13881352293663
20
232.85231112915145
30
0
11
477.13881352293708
21
175.34822431786432
31
0
0
LINE
5
123
100
AcDbEntity
8
0
100
AcDbLine
10
502.03881352293735
20
189.72424602068605
30
0
11
502.03881352293763
21
132.22015920939867
31
0
0
LINE
5
124
100
AcDbEntity
8
0
100
AcDbLine
10
4.0388135229372679
20
103.46809602068605
30
0
11
4.0388135229376232
21
45.964009209398654
31
0
0
LINE
5
125
100
AcDbEntity
8
0
100
AcDbLine
10
28.938813522932918
20
146.59616112915336
30
0
11
28.93881352293711
21
89.092074317864288
31
0
0
LINE
5
126
100
AcDbEntity
8
0
100
AcDbLine
10
53.838813522937272
20
103.46809602068605
30
0
11
53.83881352293713
21
45.964009209398981
31
0
0
LINE
5
127
100
AcDbEntity
8
0
100
AcDbLine
10
78.738813522936582
20
146.59616112915143
30
0
11
78.738813522937107
21
89.092074317864288
31
0
0
LINE
5
128
100
AcDbEntity
8
0
100
AcDbLine
10
103.63881352293728
20
103.46809602068605
30
0
11
103.63881352293762
21
45.964009209398654
31
0
0
LINE
5
129
100
AcDbEntity
8
0
100
AcDbLine
10
128.53881352293291
20
146.59616112915336
30
0
11
128.53881352293712
21
89.092074317864288
31
0
0
LINE
5
130
100
AcDbEntity
8
0
100
AcDbLine
10
153.43881352293727
20
103.46809602068605
30
0
11
153.43881352293715
21
45.964009209398981
31
0
0
LINE
5
131
100
AcDbEntity
8
0
100
AcDbLine
10
178.33881352293659
20
146.59616112915143
30
0
11
178.33881352293713
21
89.092074317864288
31
0
0
LINE
5
132
100
AcDbEntity
8
0
100
AcDbLine
10
203.23881352293728
20
103.46809602068605
30
0
11
203.23881352293765
21
45.964009209398654
31
0
0
LINE
5
133
100
AcDbEntity
8
0
100
AcDbLine
10
228.13881352293294
20
146.59616112915336
30
0
11
228.13881352293714
21
89.092074317864288
31
0
0
LINE
5
134
100
AcDbEntity
8
0
100
AcDbLine
10
253.03881352293729
20
103.46809602068605
30
0
11
253.03881352293715
21
45.964009209398981
31
0
0
LINE
5
135
100
AcDbEntity
8
0
100
AcDbLine
10
277.93881352293658
20
146.59616112915143
30
0
11
277.93881352293715
21
89.092074317864288
31
0
0
LINE
5
136
100
AcDbEntity
8
0
100
AcDbLine
10
302.8388135229373
20
103.46809602068605
30
0
11
302.83881352293764
21
45.964009209398654
31
0
0
LINE
5
137
100
AcDbEntity
8
0
100
AcDbLine
10
327.73881352293296
20
146.59616112915336
30
0
11
327.73881352293711
21
89.092074317864288
31
0
0
LINE
5
138
100
AcDbEntity
8
0
100
AcDbLine
10
352.63881352293731
20
103.46809602068605
30
0
11
352.63881352293714
21
45.964009209398981
31
0
0
LINE
5
139
100
AcDbEntity
8
0
100
AcDbLine
10
377.53881352293661
20
146.59616112915143
30
0
11
377.53881352293718
21
89.092074317864288
31
0
0
LINE
5
140
100
AcDbEntity
8
0
100
AcDbLine
10
402.43881352293727
20
103.46809602068605
30
0
11
402.43881352293772
21
45.964009209398654
31
0
0
LINE
5
141
100
AcDbEntity
8
0
100
AcDbLine
10
427.33881352293292
20
146.59616112915336
30
0
11
427.33881352293713
21
89.092074317864288
31
0
0
LINE
5
142
100
AcDbEntity
8
0
100
AcDbLine
10
477.13881352293663
20
146.59616112915143
30
0
11
477.13881352293708
21
89.092074317864288
31
0
0
LINE
5
143
100
AcDbEntity
8
0
100
AcDbLine
10
502.03881352293735
20
103.46809602068605
30
0
11
502.03881352293763
21
45.964009209398654
31
0
0
LINE
5
144
100
AcDbEntity
8
0
100
AcDbLine
10
452.23881352293733
20
103.46809602068605
30
0
11
452.23881352293716
21
45.964009209398981
31
0
0
LINE
5
145
100
AcDbEntity
8
0
100
AcDbLine
10
4.0388135229372679
20
17.211946020686035
30
0
11
4.0388135229373754
21
0
31
0
0
LINE
5
146
100
AcDbEntity
8
0
100
AcDbLine
10
28.938813522932918
20
60.340011129153339
30
0
11
28.93881352293711
21
2.8359243178642757
31
0
0
LINE
5
147
100
AcDbEntity
8
0
100
AcDbLine
10
53.838813522937272
20
17.211946020686035
30
0
11
53.838813522937237
21
0
31
0
0
LINE
5
148
100
AcDbEntity
8
0
100
AcDbLine
10
78.738813522936582
20
60.340011129151421
30
0
11
78.738813522937107
21
2.8359243178642757
31
0
0
LINE
5
149
100
AcDbEntity
8
0
100
AcDbLine
10
103.63881352293728
20
17.211946020686035
30
0
11
103.63881352293738
21
0
31
0
0
LINE
5
150
100
AcDbEntity
8
0
100
AcDbLine
10
128.53881352293291
20
60.340011129153339
30
0
11
128.53881352293712
21
2.8359243178642757
31
0
0
LINE
5
151
100
AcDbEntity
8
0
100
AcDbLine
10
153.43881352293727
20
17.211946020686035
30
0
11
153.43881352293724
21
0
31
0
0
LINE
5
152
100
AcDbEntity
8
0
100
AcDbLine
10
178.33881352293659
20
60.340011129151421
30
0
11
178.33881352293713
21
2.8359243178642757
31
0
0
LINE
5
153
100
AcDbEntity
8
0
100
AcDbLine
10
203.23881352293728
20
17.211946020686035
30
0
11
203.23881352293736
21
0
31
0
0
LINE
5
154
100
AcDbEntity
8
0
100
AcDbLine
10
228.13881352293294
20
60.340011129153339
30
0
11
228.13881352293714
21
2.8359243178642757
31
0
0
LINE
5
155
100
AcDbEntity
8
0
100
AcDbLine
10
253.03881352293729
20
17.211946020686035
30
0
11
253.03881352293723
21
0
31
0
0
LINE
5
156
100
AcDbEntity
8
0
100
AcDbLine
10
277.93881352293658
20
60.340011129151421
30
0
11
277.93881352293715
21
2.8359243178642757
31
0
0
LINE
5
157
100
AcDbEntity
8
0
100
AcDbLine
10
302.8388135229373
20
17.211946020686035
30
0
11
302.83881352293741
21
0
31
0
0
LINE
5
158
100
AcDbEntity
8
0
100
AcDbLine
10
327.73881352293296
20
60.340011129153339
30
0
11
327.73881352293711
21
2.8359243178642757
31
0
0
LINE
5
159
100
AcDbEntity
8
0
100
AcDbLine
10
352.63881352293731
20
17.211946020686035
30
0
11
352.63881352293731
21
0
31
0
0
LINE
5
160
100
AcDbEntity
8
0
100
AcDbLine
10
377.53881352293661
20
60.340011129151421
30
0
11
377.53881352293718
21
2.8359243178642757
31
0
0
LINE
5
161
100
AcDbEntity
8
0
100
AcDbLine
10
402.43881352293727
20
17.211946020686035
30
0
11
402.43881352293738
21
0
31
0
0
LINE
5
162
100
AcDbEntity
8
0
100
AcDbLine
10
427.33881352293292
20
60.340011129153339
30
0
11
427.33881352293713
21
2.8359243178642757
31
0
0
LINE
5
163
100
AcDbEntity
8
0
100
AcDbLine
10
477.13881352293663
20
60.340011129151421
30
0
11
477.13881352293708
21
2.8359243178642757
31
0
0
LINE
5
164
100
AcDbEntity
8
0
100
AcDbLine
10
502.03881352293735
20
17.211946020686035
30
0
11
502.0388135229374
21
0
31
0
0
LINE
5
165
100
AcDbEntity
8
0
100
AcDbLine
10
452.23881352293733
20
17.211946020686035
30
0
11
452.23881352293722
21
0
31
0
0
LINE
5
166
100
AcDbEntity
8
0
100
AcDbLine
10
502.03881352293735
20
275.98424602068604
30
0
11
502.03881352293763
21
218.48015920939866
31
0
0
LINE
5
167
100
AcDbEntity
8
0
100
AcDbLine
10
477.13881352293663
20
319.11231112915146
30
0
11
477.13881352293708
21
261.60822431786426
31
0
0
LINE
5
168
100
AcDbEntity
8
0
100
AcDbLine
10
452.23881352293733
20
275.98424602068604
30
0
11
452.23881352293716
21
218.48015920939901
31
0
0
LINE
5
169
100
AcDbEntity
8
0
100
AcDbLine
10
427.33881352293292
20
319.1123111291534
30
0
11
427.33881352293713
21
261.60822431786426
31
0
0
LINE
5
170
100
AcDbEntity
8
0
100
AcDbLine
10
402.43881352293727
20
275.98424602068604
30
0
11
402.43881352293772
21
218.48015920939866
31
0
0
LINE
5
171
100
AcDbEntity
8
0
100
AcDbLine
10
377.53881352293661
20
319.11231112915146
30
0
11
377.53881352293718
21
261.60822431786426
31
0
0
LINE
5
172
100
AcDbEntity
8
0
100
AcDbLine
10
352.63881352293731
20
275.98424602068604
30
0
11
352.63881352293714
21
218.48015920939901
31
0
0
LINE
5
173
100
AcDbEntity
8
0
100
AcDbLine
10
327.73881352293296
20
319.1123111291534
30
0
11
327.73881352293711
21
261.60822431786426
31
0
0
LINE
5
174
100
AcDbEntity
8
0
100
AcDbLine
10
302.8388135229373
20
275.98424602068604
30
0
11
302.83881352293764
21
218.48015920939866
31
0
0
LINE
5
175
100
AcDbEntity
8
0
100
AcDbLine
10
277.93881352293658
20
319.11231112915146
30
0
11
277.93881352293715
21
261.60822431786426
31
0
0
LINE
5
176
100
AcDbEntity
8
0
100
AcDbLine
10
253.03881352293729
20
275.98424602068604
30
0
11
253.03881352293715
21
218.48015920939901
31
0
0
LINE
5
177
100
AcDbEntity
8
0
100
AcDbLine
10
228.13881352293294
20
319.1123111291534
30
0
11
228.13881352293714
21
261.60822431786426
31
0
0
LINE
5
178
100
AcDbEntity
8
0
100
AcDbLine
10
203.23881352293728
20
275.98424602068604
30
0
11
203.23881352293765
21
218.48015920939866
31
0
0
LINE
5
179
100
AcDbEntity
8
0
100
AcDbLine
10
178.33881352293659
20
319.11231112915146
30
0
11
178.33881352293713
21
261.60822431786426
31
0
0
LINE
5
180
100
AcDbEntity
8
0
100
AcDbLine
10
153.43881352293727
20
275.98424602068604
30
0
11
153.43881352293715
21
218.48015920939901
31
0
0
LINE
5
181
100
AcDbEntity
8
0
100
AcDbLine
10
128.53881352293291
20
319.1123111291534
30
0
11
128.53881352293712
21
261.60822431786426
31
0
0
LINE
5
182
100
AcDbEntity
8
0
100
AcDbLine
10
103.63881352293728
20
275.98424602068604
30
0
11
103.63881352293762
21
218.48015920939866
31
0
0
LINE
5
183
100
AcDbEntity
8
0
100
AcDbLine
10
78.738813522936582
20
319.11231112915146
30
0
11
78.738813522937107
21
261.60822431786426
31
0
0
LINE
5
184
100
AcDbEntity
8
0
100
AcDbLine
10
53.838813522937272
20
275.98424602068604
30
0
11
53.83881352293713
21
218.48015920939901
31
0
0
LINE
5
185
100
AcDbEntity
8
0
100
AcDbLine
10
28.938813522932918
20
319.1123111291534
30
0
11
28.93881352293711
21
261.60822431786426
31
0
0
LINE
5
186
100
AcDbEntity
8
0
100
AcDbLine
10
4.0388135229372679
20
275.98424602068604
30
0
11
4.0388135229376232
21
218.48015920939866
31
0
0
LINE
5
187
100
AcDbEntity
8
0
100
AcDbLine
10
502.03881352293735
20
362.24424602068609
30
0
11
502.03881352293763
21
304.74015920939866
31
0
0
LINE
5
188
100
AcDbEntity
8
0
100
AcDbLine
10
477.13881352293691
20
375
30
0
11
477.13881352293708
21
347.86822431786436
31
0
0
LINE
5
189
100
AcDbEntity
8
0
100
AcDbLine
10
452.23881352293733
20
362.24424602068609
30
0
11
452.23881352293716
21
304.740159209399
31
0
0
LINE
5
190
100
AcDbEntity
8
0
100
AcDbLine
10
427.3388135229352
20
375
30
0
11
427.33881352293713
21
347.86822431786436
31
0
0
LINE
5
191
100
AcDbEntity
8
0
100
AcDbLine
10
402.43881352293727
20
362.24424602068609
30
0
11
402.43881352293772
21
304.74015920939866
31
0
0
LINE
5
192
100
AcDbEntity
8
0
100
AcDbLine
10
377.53881352293689
20
375
30
0
11
377.53881352293718
21
347.86822431786436
31
0
0
LINE
5
193
100
AcDbEntity
8
0
100
AcDbLine
10
352.63881352293731
20
362.24424602068609
30
0
11
352.63881352293714
21
304.740159209399
31
0
0
LINE
5
194
100
AcDbEntity
8
0
100
AcDbLine
10
327.73881352293523
20
375
30
0
11
327.73881352293711
21
347.86822431786436
31
0
0
LINE
5
195
100
AcDbEntity
8
0
100
AcDbLine
10
302.8388135229373
20
362.24424602068609
30
0
11
302.83881352293764
21
304.74015920939866
31
0
0
LINE
5
196
100
AcDbEntity
8
0
100
AcDbLine
10
277.93881352293681
20
375
30
0
11
277.93881352293715
21
347.86822431786436
31
0
0
LINE
5
197
100
AcDbEntity
8
0
100
AcDbLine
10
253.03881352293729
20
362.24424602068609
30
0
11
253.03881352293715
21
304.740159209399
31
0
0
LINE
5
198
100
AcDbEntity
8
0
100
AcDbLine
10
228.13881352293521
20
375
30
0
11
228.13881352293714
21
347.86822431786436
31
0
0
LINE
5
199
100
AcDbEntity
8
0
100
AcDbLine
10
203.23881352293728
20
362.24424602068609
30
0
11
203.23881352293765
21
304.74015920939866
31
0
0
LINE
5
200
100
AcDbEntity
8
0
100
AcDbLine
10
178.33881352293687
20
375
30
0
11
178.33881352293713
21
347.86822431786436
31
0
0
LINE
5
201
100
AcDbEntity
8
0
100
AcDbLine
10
153.43881352293727
20
362.24424602068609
30
0
11
153.43881352293715
21
304.740159209399
31
0
0
LINE
5
202
100
AcDbEntity
8
0
100
AcDbLine
10
128.5388135229351
20
375
30
0
11
128.53881352293712
21
347.86822431786436
31
0
0
LINE
5
203
100
AcDbEntity
8
0
100
AcDbLine
10
103.63881352293728
20
362.24424602068609
30
0
11
103.63881352293762
21
304.74015920939866
31
0
0
LINE
5
204
100
AcDbEntity
8
0
100
AcDbLine
10
78.738813522936908
20
375
30
0
11
78.738813522937107
21
347.86822431786436
31
0
0
LINE
5
205
100
AcDbEntity
8
0
100
AcDbLine
10
53.838813522937272
20
362.24424602068609
30
0
11
53.83881352293713
21
304.740159209399
31
0
0
LINE
5
206
100
AcDbEntity
8
0
100
AcDbLine
10
28.938813522935121
20
375
30
0
11
28.93881352293711
21
347.86822431786436
31
0
0
LINE
5
207
100
AcDbEntity
8
0
100
AcDbLine
10
4.0388135229372679
20
362.24424602068609
30
0
11
4.0388135229376232
21
304.74015920939866
31
0
0
LINE
5
208
100
AcDbEntity
8
0
100
AcDbLine
10
78.738813522937107
20
175.34822431786432
30
0
11
28.938813522937412
21
146.59618091222055
31
0
0
LINE
5
209
100
AcDbEntity
8
0
100
AcDbLine
10
4.0388135229376232
20
132.22015920939867
30
0
11
5.2816412719629428e-31
21
129.88834913472388
31
0
0
LINE
5
210
100
AcDbEntity
8
0
100
AcDbLine
10
6.6404201688986413e-31
20
163.30401268971684
30
0
11
28.938813522937412
21
146.59618091222055
31
0
0
LINE
5
211
100
AcDbEntity
8
0
100
AcDbLine
10
4.0388135229371516
20
103.46811580375547
30
0
11
53.83881352293713
21
132.22015920939899
31
0
0
LINE
5
212
100
AcDbEntity
8
0
100
AcDbLine
10
78.738813522937249
20
146.59618091222083
30
0
11
128.53881352293712
21
175.34822431786432
31
0
0
LINE
5
213
100
AcDbEntity
8
0
100
AcDbLine
10
28.93881352293711
20
175.34822431786432
30
0
11
78.738813522937249
21
146.59618091222083
31
0
0
LINE
5
214
100
AcDbEntity
8
0
100
AcDbLine
10
128.53881352293718
20
146.59618091222089
30
0
11
178.33881352293713
21
175.34822431786432
31
0
0
LINE
5
215
100
AcDbEntity
8
0
100
AcDbLine
10
78.738813522937107
20
175.34822431786432
30
0
11
128.53881352293718
21
146.59618091222089
31
0
0
LINE
5
216
100
AcDbEntity
8
0
100
AcDbLine
10
228.13881352293714
20
175.34822431786432
30
0
11
178.33881352293707
21
146.59618091222097
31
0
0
LINE
5
217
100
AcDbEntity
8
0
100
AcDbLine
10
128.53881352293712
20
175.34822431786432
30
0
11
178.33881352293707
21
146.59618091222097
31
0
0
LINE
5
218
100
AcDbEntity
8
0
100
AcDbLine
10
277.93881352293715
20
175.34822431786432
30
0
11
228.13881352293831
21
146.59618091222026
31
0
0
LINE
5
219
100
AcDbEntity
8
0
100
AcDbLine
10
178.33881352293713
20
175.34822431786432
30
0
11
228.13881352293831
21
146.59618091222026
31
0
0
LINE
5
220
100
AcDbEntity
8
0
100
AcDbLine
10
327.73881352293711
20
175.34822431786432
30
0
11
277.93881352293818
21
146.59618091222035
31
0
0
LINE
5
221
100
AcDbEntity
8
0
100
AcDbLine
10
228.13881352293714
20
175.34822431786432
30
0
11
277.93881352293818
21
146.59618091222035
31
0
0
LINE
5
222
100
AcDbEntity
8
0
100
AcDbLine
10
377.53881352293718
20
175.34822431786432
30
0
11
327.73881352293836
21
146.59618091222026
31
0
0
LINE
5
223
100
AcDbEntity
8
0
100
AcDbLine
10
277.93881352293715
20
175.34822431786432
30
0
11
327.73881352293836
21
146.59618091222026
31
0
0
LINE
5
224
100
AcDbEntity
8
0
100
AcDbLine
10
427.33881352293713
20
175.34822431786432
30
0
11
377.53881352293774
21
146.59618091222063
31
0
0
LINE
5
225
100
AcDbEntity
8
0
100
AcDbLine
10
327.73881352293711
20
175.34822431786432
30
0
11
377.53881352293774
21
146.59618091222063
31
0
0
LINE
5
226
100
AcDbEntity
8
0
100
AcDbLine
10
477.13881352293708
20
175.34822431786432
30
0
11
427.33881352293758
21
146.5961809122206
31
0
0
LINE
5
227
100
AcDbEntity
8
0
100
AcDbLine
10
377.53881352293718
20
175.34822431786432
30
0
11
427.33881352293758
21
146.5961809122206
31
0
0
LINE
5
228
100
AcDbEntity
8
0
100
AcDbLine
10
505
20
162.68184442469482
30
0
11
477.13881352293856
21
146.59618091222012
31
0
0
LINE
5
229
100
AcDbEntity
8
0
100
AcDbLine
10
427.33881352293713
20
175.34822431786432
30
0
11
477.13881352293856
21
146.59618091222012
31
0
0
LINE
5
230
100
AcDbEntity
8
0
100
AcDbLine
10
477.13881352293708
20
175.34822431786432
30
0
11
505
21
159.26256080538968
31
0
0
LINE
5
231
100
AcDbEntity
8
0
100
AcDbLine
10
502.03881352293763
20
132.22015920939867
30
0
11
505
21
130.51051739974605
31
0
0
LINE
5
232
100
AcDbEntity
8
0
100
AcDbLine
10
452.23881352293716
20
132.22015920939899
30
0
11
502.03881352293865
21
103.46811580375474
31
0
0
LINE
5
233
100
AcDbEntity
8
0
100
AcDbLine
10
502.03881352293865
20
103.46811580375474
30
0
11
505
21
105.17775761340694
31
0
0
LINE
5
234
100
AcDbEntity
8
0
100
AcDbLine
10
402.43881352293772
20
132.22015920939867
30
0
11
452.23881352293915
21
103.46811580375457
31
0
0
LINE
5
235
100
AcDbEntity
8
0
100
AcDbLine
10
502.03881352293763
20
132.22015920939867
30
0
11
452.23881352293915
21
103.46811580375457
31
0
0
LINE
5
236
100
AcDbEntity
8
0
100
AcDbLine
10
352.63881352293714
20
132.22015920939899
30
0
11
402.43881352293903
21
103.46811580375464
31
0
0
LINE
5
237
100
AcDbEntity
8
0
100
AcDbLine
10
452.23881352293716
20
132.22015920939899
30
0
11
402.43881352293903
21
103.46811580375464
31
0
0
LINE
5
238
100
AcDbEntity
8
0
100
AcDbLine
10
302.83881352293764
20
132.22015920939867
30
0
11
352.63881352293828
21
103.46811580375501
31
0
0
LINE
5
239
100
AcDbEntity
8
0
100
AcDbLine
10
402.43881352293772
20
132.22015920939867
30
0
11
352.63881352293828
21
103.46811580375501
31
0
0
LINE
5
240
100
AcDbEntity
8
0
100
AcDbLine
10
253.03881352293715
20
132.22015920939899
30
0
11
302.83881352293793
21
103.46811580375527
31
0
0
LINE
5
241
100
AcDbEntity
8
0
100
AcDbLine
10
352.63881352293714
20
132.22015920939899
30
0
11
302.83881352293793
21
103.46811580375527
31
0
0
LINE
5
242
100
AcDbEntity
8
0
100
AcDbLine
10
203.23881352293765
20
132.22015920939867
30
0
11
253.03881352293905
21
103.46811580375453
31
0
0
LINE
5
243
100
AcDbEntity
8
0
100
AcDbLine
10
302.83881352293764
20
132.22015920939867
30
0
11
253.03881352293905
21
103.46811580375453
31
0
0
LINE
5
244
100
AcDbEntity
8
0
100
AcDbLine
10
153.43881352293715
20
132.22015920939899
30
0
11
203.2388135229385
21
103.4681158037549
31
0
0
LINE
5
245
100
AcDbEntity
8
0
100
AcDbLine
10
253.03881352293715
20
132.22015920939899
30
0
11
203.2388135229385
21
103.4681158037549
31
0
0
LINE
5
246
100
AcDbEntity
8
0
100
AcDbLine
10
103.63881352293762
20
132.22015920939867
30
0
11
153.43881352293909
21
103.46811580375451
31
0
0
LINE
5
247
100
AcDbEntity
8
0
100
AcDbLine
10
203.23881352293765
20
132.22015920939867
30
0
11
153.43881352293909
21
103.46811580375451
31
0
0
LINE
5
248
100
AcDbEntity
8
0
100
AcDbLine
10
53.83881352293713
20
132.22015920939899
30
0
11
103.638813522937
21
103.46811580375569
31
0
0
LINE
5
249
100
AcDbEntity
8
0
100
AcDbLine
10
153.43881352293715
20
132.22015920939899
30
0
11
103.638813522937
21
103.46811580375569
31
0
0
LINE
5
250
100
AcDbEntity
8
0
100
AcDbLine
10
4.0388135229376232
20
132.22015920939867
30
0
11
53.838813522937336
21
103.46811580375544
31
0
0
LINE
5
251
100
AcDbEntity
8
0
100
AcDbLine
10
2.9433564278465122e-31
20
72.384262323437838
30
0
11
28.938813522937139
21
89.092094100933807
31
0
0
LINE
5
252
100
AcDbEntity
8
0
100
AcDbLine
10
53.838813522937336
20
103.46811580375544
30
0
11
103.63881352293762
21
132.22015920939867
31
0
0
LINE
5
253
100
AcDbEntity
8
0
100
AcDbLine
10
4.3021353247821753e-31
20
105.79992587842995
30
0
11
4.0388135229371516
21
103.46811580375547
31
0
0
LINE
5
254
100
AcDbEntity
8
0
100
AcDbLine
10
78.73881352293688
20
89.092094100933991
30
0
11
28.938813522936861
21
60.340050695290785
31
0
0
LINE
5
255
100
AcDbEntity
8
0
100
AcDbLine
10
4.0388135229361231
20
45.964028992468748
30
0
11
1.7742140057883002e-31
21
43.632218917794887
31
0
0
LINE
5
256
100
AcDbEntity
8
0
100
AcDbLine
10
3.1329929027239549e-31
20
77.047882472786782
30
0
11
28.938813522936861
21
60.340050695290785
31
0
0
LINE
5
257
100
AcDbEntity
8
0
100
AcDbLine
10
128.53881352293712
20
89.092094100930865
30
0
11
78.738813522941072
21
60.340050695288156
31
0
0
LINE
5
258
100
AcDbEntity
8
0
100
AcDbLine
10
53.83881352293713
20
45.964028992468933
30
0
11
4.0388135229424016
21
17.211985586821811
31
0
0
LINE
5
259
100
AcDbEntity
8
0
100
AcDbLine
10
28.938813522937139
20
89.092094100933807
30
0
11
78.738813522941072
21
60.340050695288156
31
0
0
LINE
5
260
100
AcDbEntity
8
0
100
AcDbLine
10
178.33881352293713
20
89.092094100931675
30
0
11
128.5388135229403
21
60.340050695288632
31
0
0
LINE
5
261
100
AcDbEntity
8
0
100
AcDbLine
10
78.73881352293688
20
89.092094100933991
30
0
11
128.5388135229403
21
60.340050695288632
31
0
0
LINE
5
262
100
AcDbEntity
8
0
100
AcDbLine
10
228.13881352293714
20
89.09209410093095
30
0
11
178.33881352293929
21
60.340050695287232
31
0
0
LINE
5
263
100
AcDbEntity
8
0
100
AcDbLine
10
128.53881352293712
20
89.092094100930865
30
0
11
178.33881352293929
21
60.340050695287232
31
0
0
LINE
5
264
100
AcDbEntity
8
0
100
AcDbLine
10
277.93881352293715
20
89.092094100932755
30
0
11
228.13881352293754
21
60.340050695288845
31
0
0
LINE
5
265
100
AcDbEntity
8
0
100
AcDbLine
10
178.33881352293713
20
89.092094100931675
30
0
11
228.13881352293754
21
60.340050695288845
31
0
0
LINE
5
266
100
AcDbEntity
8
0
100
AcDbLine
10
327.73881352293711
20
89.092094100932371
30
0
11
277.93881352293738
21
60.34005069528849
31
0
0
LINE
5
267
100
AcDbEntity
8
0
100
AcDbLine
10
228.13881352293714
20
89.09209410093095
30
0
11
277.93881352293738
21
60.34005069528849
31
0
0
LINE
5
268
100
AcDbEntity
8
0
100
AcDbLine
10
377.53881352293718
20
89.092094100930836
30
0
11
327.73881352294097
21
60.340050695287609
31
0
0
LINE
5
269
100
AcDbEntity
8
0
100
AcDbLine
10
277.93881352293715
20
89.092094100932755
30
0
11
327.73881352294097
21
60.340050695287609
31
0
0
LINE
5
270
100
AcDbEntity
8
0
100
AcDbLine
10
427.33881352293713
20
89.092094100930865
30
0
11
377.53881352294036
21
60.340050695287744
31
0
0
LINE
5
271
100
AcDbEntity
8
0
100
AcDbLine
10
327.73881352293711
20
89.092094100932371
30
0
11
377.53881352294036
21
60.340050695287744
31
0
0
LINE
5
272
100
AcDbEntity
8
0
100
AcDbLine
10
427.33881352293713
20
89.092094100930865
30
0
11
477.13881352293936
21
60.340050695287317
31
0
0
LINE
5
273
100
AcDbEntity
8
0
100
AcDbLine
10
477.13881352293708
20
89.092094100931334
30
0
11
505
21
73.006430588457292
31
0
0
LINE
5
274
100
AcDbEntity
8
0
100
AcDbLine
10
427.33881352293912
20
60.340050695287403
30
0
11
477.13881352293708
21
89.092094100931334
31
0
0
LINE
5
275
100
AcDbEntity
8
0
100
AcDbLine
10
377.53881352293718
20
89.092094100930836
30
0
11
427.33881352293912
21
60.340050695287403
31
0
0
LINE
5
276
100
AcDbEntity
8
0
100
AcDbLine
10
477.13881352293936
20
60.340050695287317
30
0
11
505
21
76.42571420776143
31
0
0
LINE
5
277
100
AcDbEntity
8
0
100
AcDbLine
10
452.23881352293716
20
45.964028992467405
30
0
11
502.03881352294439
21
17.211985586820951
31
0
0
LINE
5
278
100
AcDbEntity
8
0
100
AcDbLine
10
477.13881352293708
20
2.8359638839912549
30
0
11
472.22677998743518
21
0
31
0
0
LINE
5
279
100
AcDbEntity
8
0
100
AcDbLine
10
402.43881352293772
20
45.964028992467895
30
0
11
452.23881352294165
21
17.211985586822877
31
0
0
LINE
5
280
100
AcDbEntity
8
0
100
AcDbLine
10
477.13881352293708
20
2.8359638839912549
30
0
11
482.05084705846269
21
0
31
0
0
LINE
5
281
100
AcDbEntity
8
0
100
AcDbLine
10
502.03881352293763
20
45.964028992467235
30
0
11
452.23881352294165
21
17.211985586822877
31
0
0
LINE
5
282
100
AcDbEntity
8
0
100
AcDbLine
10
427.33881352293713
20
2.8359638839969747
30
0
11
422.4267799874246
21
0
31
0
0
LINE
5
283
100
AcDbEntity
8
0
100
AcDbLine
10
352.63881352293714
20
45.964028992468393
30
0
11
402.43881352294187
21
17.211985586822763
31
0
0
LINE
5
284
100
AcDbEntity
8
0
100
AcDbLine
10
427.33881352293713
20
2.8359638839969747
30
0
11
432.25084705846257
21
0
31
0
0
LINE
5
285
100
AcDbEntity
8
0
100
AcDbLine
10
372.62677998742572
20
0
30
0
11
377.53881352293718
21
2.8359638839963797
31
0
0
LINE
5
286
100
AcDbEntity
8
0
100
AcDbLine
10
402.43881352294187
20
17.211985586822763
30
0
11
452.23881352293716
21
45.964028992467405
31
0
0
LINE
5
287
100
AcDbEntity
8
0
100
AcDbLine
10
302.83881352293764
20
45.964028992467163
30
0
11
352.63881352294158
21
17.211985586822607
31
0
0
LINE
5
288
100
AcDbEntity
8
0
100
AcDbLine
10
377.53881352293718
20
2.8359638839963797
30
0
11
382.45084705846261
21
0
31
0
0
LINE
5
289
100
AcDbEntity
8
0
100
AcDbLine
10
322.82677998742588
20
0
30
0
11
327.73881352293711
21
2.8359638839963175
31
0
0
LINE
5
290
100
AcDbEntity
8
0
100
AcDbLine
10
352.63881352294158
20
17.211985586822607
30
0
11
402.43881352293772
21
45.964028992467895
31
0
0
LINE
5
291
100
AcDbEntity
8
0
100
AcDbLine
10
253.03881352293715
20
45.964028992467789
30
0
11
302.83881352294139
21
17.211985586822735
31
0
0
LINE
5
292
100
AcDbEntity
8
0
100
AcDbLine
10
327.73881352293711
20
2.8359638839963175
30
0
11
332.65084705846243
21
0
31
0
0
LINE
5
293
100
AcDbEntity
8
0
100
AcDbLine
10
352.63881352293714
20
45.964028992468393
30
0
11
302.83881352294139
21
17.211985586822735
31
0
0
LINE
5
294
100
AcDbEntity
8
0
100
AcDbLine
10
277.93881352293715
20
2.8359638839961843
30
0
11
273.02677998742615
21
0
31
0
0
LINE
5
295
100
AcDbEntity
8
0
100
AcDbLine
10
203.23881352293765
20
45.964028992466986
30
0
11
253.03881352294241
21
17.211985586821839
31
0
0
LINE
5
296
100
AcDbEntity
8
0
100
AcDbLine
10
277.93881352293715
20
2.8359638839961843
30
0
11
282.85084705846208
21
0
31
0
0
LINE
5
297
100
AcDbEntity
8
0
100
AcDbLine
10
302.83881352293764
20
45.964028992467163
30
0
11
253.03881352294241
21
17.211985586821839
31
0
0
LINE
5
298
100
AcDbEntity
8
0
100
AcDbLine
10
228.13881352293714
20
2.8359638839947454
30
0
11
223.22677998742864
21
0
31
0
0
LINE
5
299
100
AcDbEntity
8
0
100
AcDbLine
10
153.43881352293715
20
45.964028992468762
30
0
11
203.23881352293927
21
17.211985586824127
31
0
0
LINE
5
300
100
AcDbEntity
8
0
100
AcDbLine
10
228.13881352293714
20
2.8359638839947454
30
0
11
233.05084705846184
21
0
31
0
0
LINE
5
301
100
AcDbEntity
8
0
100
AcDbLine
10
253.03881352293715
20
45.964028992467789
30
0
11
203.23881352293927
21
17.211985586824127
31
0
0
LINE
5
302
100
AcDbEntity
8
0
100
AcDbLine
10
178.33881352293713
20
2.8359638840004475
30
0
11
173.42677998741823
21
0
31
0
0
LINE
5
303
100
AcDbEntity
8
0
100
AcDbLine
10
103.63881352293762
20
45.964028992468442
30
0
11
153.43881352293965
21
17.2119855868239
31
0
0
LINE
5
304
100
AcDbEntity
8
0
100
AcDbLine
10
178.33881352293713
20
2.8359638840004475
30
0
11
183.25084705846189
21
0
31
0
0
LINE
5
305
100
AcDbEntity
8
0
100
AcDbLine
10
203.23881352293765
20
45.964028992466986
30
0
11
153.43881352293965
21
17.2119855868239
31
0
0
LINE
5
306
100
AcDbEntity
8
0
100
AcDbLine
10
128.53881352293712
20
2.8359638840002965
30
0
11
123.62677998741837
21
0
31
0
0
LINE
5
307
100
AcDbEntity
8
0
100
AcDbLine
10
53.83881352293713
20
45.964028992468933
30
0
11
103.6388135229415
21
17.211985586823015
31
0
0
LINE
5
308
100
AcDbEntity
8
0
100
AcDbLine
10
128.53881352293712
20
2.8359638840002965
30
0
11
133.4508470584621
21
0
31
0
0
LINE
5
309
100
AcDbEntity
8
0
100
AcDbLine
10
153.43881352293715
20
45.964028992468762
30
0
11
103.6388135229415
21
17.211985586823015
31
0
0
LINE
5
310
100
AcDbEntity
8
0
100
AcDbLine
10
78.738813522942962
20
2.8359638839997192
30
0
11
73.826779987425908
21
0
31
0
0
LINE
5
311
100
AcDbEntity
8
0
100
AcDbLine
10
4.0388135229361231
20
45.964028992468748
30
0
11
53.83881352294047
21
17.211985586822852
31
0
0
LINE
5
312
100
AcDbEntity
8
0
100
AcDbLine
10
78.738813522942962
20
2.8359638839997192
30
0
11
83.650847058460855
21
0
31
0
0
LINE
5
313
100
AcDbEntity
8
0
100
AcDbLine
10
103.63881352293762
20
45.964028992468442
30
0
11
53.83881352294047
21
17.211985586822852
31
0
0
LINE
5
314
100
AcDbEntity
8
0
100
AcDbLine
10
28.938813522942191
20
2.8359638840002321
30
0
11
24.026779987424089
21
0
31
0
0
LINE
5
315
100
AcDbEntity
8
0
100
AcDbLine
10
7.9470805860746524e-32
20
19.543795661499317
30
0
11
4.0388135229424016
21
17.211985586821811
31
0
0
LINE
5
316
100
AcDbEntity
8
0
100
AcDbLine
10
28.938813522942191
20
2.8359638840002321
30
0
11
33.850847058460957
21
0
31
0
0
LINE
5
317
100
AcDbEntity
8
0
100
AcDbLine
10
4.0388135229331352
20
218.47628942633179
30
0
11
8.7890685381378604e-31
21
216.14447935165964
31
0
0
LINE
5
318
100
AcDbEntity
8
0
100
AcDbLine
10
1.0147847435073331e-30
20
249.56014290664706
30
0
11
28.938813522932918
21
232.85231112915338
31
0
0
LINE
5
319
100
AcDbEntity
8
0
100
AcDbLine
10
53.838813522936704
20
218.47628942632963
30
0
11
103.63881352293728
21
189.72424602068605
31
0
0
LINE
5
320
100
AcDbEntity
8
0
100
AcDbLine
10
53.838813522936704
20
218.47628942632963
30
0
11
4.0388135229372679
21
189.72424602068605
31
0
0
LINE
5
321
100
AcDbEntity
8
0
100
AcDbLine
10
103.63881352293745
20
218.47628942632929
30
0
11
153.43881352293727
21
189.72424602068605
31
0
0
LINE
5
322
100
AcDbEntity
8
0
100
AcDbLine
10
103.63881352293745
20
218.47628942632929
30
0
11
53.838813522937272
21
189.72424602068605
31
0
0
LINE
5
323
100
AcDbEntity
8
0
100
AcDbLine
10
153.43881352293735
20
218.4762894263294
30
0
11
203.23881352293728
21
189.72424602068605
31
0
0
LINE
5
324
100
AcDbEntity
8
0
100
AcDbLine
10
203.23881352293733
20
218.4762894263294
30
0
11
253.03881352293729
21
189.72424602068605
31
0
0
LINE
5
325
100
AcDbEntity
8
0
100
AcDbLine
10
253.03881352293729
20
218.4762894263294
30
0
11
302.8388135229373
21
189.72424602068605
31
0
0
LINE
5
326
100
AcDbEntity
8
0
100
AcDbLine
10
203.23881352293728
20
189.72424602068605
30
0
11
253.03881352293729
21
218.4762894263294
31
0
0
LINE
5
327
100
AcDbEntity
8
0
100
AcDbLine
10
302.83881352293719
20
218.47628942632934
30
0
11
352.63881352293731
21
189.72424602068605
31
0
0
LINE
5
328
100
AcDbEntity
8
0
100
AcDbLine
10
302.83881352293719
20
218.47628942632934
30
0
11
253.03881352293729
21
189.72424602068605
31
0
0
LINE
5
329
100
AcDbEntity
8
0
100
AcDbLine
10
352.63881352293799
20
218.476289426329
30
0
11
402.43881352293727
21
189.72424602068605
31
0
0
LINE
5
330
100
AcDbEntity
8
0
100
AcDbLine
10
153.43881352293735
20
218.4762894263294
30
0
11
103.63881352293728
21
189.72424602068605
31
0
0
LINE
5
331
100
AcDbEntity
8
0
100
AcDbLine
10
153.43881352293727
20
189.72424602068605
30
0
11
203.23881352293733
21
218.4762894263294
31
0
0
LINE
5
332
100
AcDbEntity
8
0
100
AcDbLine
10
352.63881352293799
20
218.476289426329
30
0
11
302.8388135229373
21
189.72424602068605
31
0
0
LINE
5
333
100
AcDbEntity
8
0
100
AcDbLine
10
402.43881352293806
20
218.47628942632898
30
0
11
452.23881352293733
21
189.72424602068605
31
0
0
LINE
5
334
100
AcDbEntity
8
0
100
AcDbLine
10
402.43881352293806
20
218.47628942632898
30
0
11
352.63881352293731
21
189.72424602068605
31
0
0
LINE
5
335
100
AcDbEntity
8
0
100
AcDbLine
10
452.2388135229383
20
218.47628942632895
30
0
11
502.03881352293735
21
189.72424602068605
31
0
0
LINE
5
336
100
AcDbEntity
8
0
100
AcDbLine
10
452.2388135229383
20
218.47628942632895
30
0
11
402.43881352293727
21
189.72424602068605
31
0
0
LINE
5
337
100
AcDbEntity
8
0
100
AcDbLine
10
502.03881352293791
20
218.47628942632909
30
0
11
505
21
216.76664761667664
31
0
0
LINE
5
338
100
AcDbEntity
8
0
100
AcDbLine
10
502.03881352293791
20
218.47628942632909
30
0
11
452.23881352293733
21
189.72424602068605
31
0
0
LINE
5
339
100
AcDbEntity
8
0
100
AcDbLine
10
505
20
191.43388783033882
30
0
11
502.03881352293735
21
189.72424602068605
31
0
0
LINE
5
340
100
AcDbEntity
8
0
100
AcDbLine
10
1.1316989857131567e-30
20
278.31218631229052
30
0
11
4.0388135229368771
21
275.98037623761621
31
0
0
LINE
5
341
100
AcDbEntity
8
0
100
AcDbLine
10
28.938813522937679
20
261.60435453479408
30
0
11
78.738813522936582
21
232.85231112915145
31
0
0
LINE
5
342
100
AcDbEntity
8
0
100
AcDbLine
10
28.938813522937679
20
261.60435453479408
30
0
11
9.9582109601958688e-31
21
244.89652275729756
31
0
0
LINE
5
343
100
AcDbEntity
8
0
100
AcDbLine
10
4.0388135229371587
20
304.73241964325945
30
0
11
53.838813522937272
21
275.98037623761559
31
0
0
LINE
5
344
100
AcDbEntity
8
0
100
AcDbLine
10
78.738813522933029
20
261.60435453479681
30
0
11
128.53881352293291
21
232.85231112915338
31
0
0
LINE
5
345
100
AcDbEntity
8
0
100
AcDbLine
10
78.738813522933029
20
261.60435453479681
30
0
11
28.938813522932918
21
232.85231112915338
31
0
0
LINE
5
346
100
AcDbEntity
8
0
100
AcDbLine
10
128.53881352293627
20
261.60435453479511
30
0
11
178.33881352293659
21
232.85231112915145
31
0
0
LINE
5
347
100
AcDbEntity
8
0
100
AcDbLine
10
128.53881352293627
20
261.60435453479511
30
0
11
78.738813522936582
21
232.85231112915145
31
0
0
LINE
5
348
100
AcDbEntity
8
0
100
AcDbLine
10
178.33881352293366
20
261.60435453479636
30
0
11
228.13881352293294
21
232.85231112915338
31
0
0
LINE
5
349
100
AcDbEntity
8
0
100
AcDbLine
10
178.33881352293366
20
261.60435453479636
30
0
11
128.53881352293291
21
232.85231112915338
31
0
0
LINE
5
350
100
AcDbEntity
8
0
100
AcDbLine
10
228.13881352293669
20
261.60435453479471
30
0
11
277.93881352293658
21
232.85231112915145
31
0
0
LINE
5
351
100
AcDbEntity
8
0
100
AcDbLine
10
228.13881352293669
20
261.60435453479471
30
0
11
178.33881352293659
21
232.85231112915145
31
0
0
LINE
5
352
100
AcDbEntity
8
0
100
AcDbLine
10
277.93881352293346
20
261.60435453479641
30
0
11
327.73881352293296
21
232.85231112915338
31
0
0
LINE
5
353
100
AcDbEntity
8
0
100
AcDbLine
10
228.13881352293294
20
232.85231112915338
30
0
11
277.93881352293346
21
261.60435453479641
31
0
0
LINE
5
354
100
AcDbEntity
8
0
100
AcDbLine
10
327.73881352293671
20
261.60435453479477
30
0
11
377.53881352293661
21
232.85231112915145
31
0
0
LINE
5
355
100
AcDbEntity
8
0
100
AcDbLine
10
277.93881352293658
20
232.85231112915145
30
0
11
327.73881352293671
21
261.60435453479477
31
0
0
LINE
5
356
100
AcDbEntity
8
0
100
AcDbLine
10
377.53881352293348
20
261.60435453479641
30
0
11
427.33881352293292
21
232.85231112915338
31
0
0
LINE
5
357
100
AcDbEntity
8
0
100
AcDbLine
10
377.53881352293348
20
261.60435453479641
30
0
11
327.73881352293296
21
232.85231112915338
31
0
0
LINE
5
358
100
AcDbEntity
8
0
100
AcDbLine
10
427.33881352293758
20
261.60435453479431
30
0
11
477.13881352293663
21
232.85231112915145
31
0
0
LINE
5
359
100
AcDbEntity
8
0
100
AcDbLine
10
427.33881352293758
20
261.60435453479431
30
0
11
377.53881352293661
21
232.85231112915145
31
0
0
LINE
5
360
100
AcDbEntity
8
0
100
AcDbLine
10
477.1388135229347
20
261.60435453479585
30
0
11
505
21
245.51869102231976
31
0
0
LINE
5
361
100
AcDbEntity
8
0
100
AcDbLine
10
477.1388135229347
20
261.60435453479585
30
0
11
427.33881352293292
21
232.85231112915338
31
0
0
LINE
5
362
100
AcDbEntity
8
0
100
AcDbLine
10
505
20
248.93797464162549
30
0
11
477.13881352293663
21
232.85231112915145
31
0
0
LINE
5
363
100
AcDbEntity
8
0
100
AcDbLine
10
4.0388135229371587
20
304.73241964325945
30
0
11
1.2296495804312355e-30
21
302.40060956858497
31
0
0
LINE
5
364
100
AcDbEntity
8
0
100
AcDbLine
10
1.3655274701248029e-30
20
335.81627312357739
30
0
11
28.938813522932918
21
319.10844134607873
31
0
0
LINE
5
365
100
AcDbEntity
8
0
100
AcDbLine
10
53.838813522939191
20
304.73241964326087
30
0
11
103.63881352293728
21
275.98037623762093
31
0
0
LINE
5
366
100
AcDbEntity
8
0
100
AcDbLine
10
53.838813522939191
20
304.73241964326087
30
0
11
4.0388135229368771
21
275.98037623761621
31
0
0
LINE
5
367
100
AcDbEntity
8
0
100
AcDbLine
10
103.63881352293859
20
304.73241964325973
30
0
11
153.43881352293727
21
275.98037623761763
31
0
0
LINE
5
368
100
AcDbEntity
8
0
100
AcDbLine
10
103.63881352293859
20
304.73241964325973
30
0
11
53.838813522937272
21
275.98037623761559
31
0
0
LINE
5
369
100
AcDbEntity
8
0
100
AcDbLine
10
153.43881352293548
20
304.7324196432632
30
0
11
203.23881352293728
21
275.98037623761974
31
0
0
LINE
5
370
100
AcDbEntity
8
0
100
AcDbLine
10
153.43881352293548
20
304.7324196432632
30
0
11
103.63881352293728
21
275.98037623762093
31
0
0
LINE
5
371
100
AcDbEntity
8
0
100
AcDbLine
10
203.23881352293597
20
304.7324196432607
30
0
11
253.03881352293729
21
275.98037623761672
31
0
0
LINE
5
372
100
AcDbEntity
8
0
100
AcDbLine
10
203.23881352293597
20
304.7324196432607
30
0
11
153.43881352293727
21
275.98037623761763
31
0
0
LINE
5
373
100
AcDbEntity
8
0
100
AcDbLine
10
253.03881352293763
20
304.73241964326252
30
0
11
203.23881352293728
21
275.98037623761974
31
0
0
LINE
5
374
100
AcDbEntity
8
0
100
AcDbLine
10
302.8388135229373
20
304.73241964325996
30
0
11
352.63881352293731
21
275.98037623761672
31
0
0
LINE
5
375
100
AcDbEntity
8
0
100
AcDbLine
10
302.8388135229373
20
304.73241964325996
30
0
11
253.03881352293729
21
275.98037623761672
31
0
0
LINE
5
376
100
AcDbEntity
8
0
100
AcDbLine
10
352.63881352293737
20
304.7324196432628
30
0
11
402.43881352293727
21
275.98037623762002
31
0
0
LINE
5
377
100
AcDbEntity
8
0
100
AcDbLine
10
302.8388135229373
20
275.98037623762002
30
0
11
352.63881352293737
21
304.7324196432628
31
0
0
LINE
5
378
100
AcDbEntity
8
0
100
AcDbLine
10
402.43881352293636
20
304.73241964325939
30
0
11
452.23881352293733
21
275.98037623761536
31
0
0
LINE
5
379
100
AcDbEntity
8
0
100
AcDbLine
10
452.23881352293586
20
304.73241964326201
30
0
11
502.03881352293735
21
275.98037623761809
31
0
0
LINE
5
380
100
AcDbEntity
8
0
100
AcDbLine
10
253.03881352293763
20
304.73241964326252
30
0
11
302.8388135229373
21
275.98037623762002
31
0
0
LINE
5
381
100
AcDbEntity
8
0
100
AcDbLine
10
352.63881352293731
20
275.98037623761672
30
0
11
402.43881352293636
21
304.73241964325939
31
0
0
LINE
5
382
100
AcDbEntity
8
0
100
AcDbLine
10
452.23881352293586
20
304.73241964326201
30
0
11
402.43881352293727
21
275.98037623762002
31
0
0
LINE
5
383
100
AcDbEntity
8
0
100
AcDbLine
10
502.03881352293774
20
304.73241964325791
30
0
11
452.23881352293733
21
275.98037623761536
31
0
0
LINE
5
384
100
AcDbEntity
8
0
100
AcDbLine
10
1.4824417123306262e-30
20
364.56831652922074
30
0
11
4.0388135229289546
21
362.23650645455103
31
0
0
LINE
5
385
100
AcDbEntity
8
0
100
AcDbLine
10
28.938813522928939
20
347.86048475172913
30
0
11
78.738813522936582
21
319.10844134608107
31
0
0
LINE
5
386
100
AcDbEntity
8
0
100
AcDbLine
10
28.938813522928939
20
347.86048475172913
30
0
11
1.3465638226370969e-30
21
331.15265297423775
31
0
0
LINE
5
387
100
AcDbEntity
8
0
100
AcDbLine
10
31.731794220143286
20
375
30
0
11
53.838813522937272
21
362.23650645455564
31
0
0
LINE
5
388
100
AcDbEntity
8
0
100
AcDbLine
10
78.738813522934237
20
347.86048475172288
30
0
11
128.53881352293291
21
319.10844134607822
31
0
0
LINE
5
389
100
AcDbEntity
8
0
100
AcDbLine
10
78.738813522934237
20
347.86048475172288
30
0
11
28.938813522932918
21
319.10844134607873
31
0
0
LINE
5
390
100
AcDbEntity
8
0
100
AcDbLine
10
128.53881352293945
20
347.86048475172606
30
0
11
178.33881352293659
21
319.10844134608556
31
0
0
LINE
5
391
100
AcDbEntity
8
0
100
AcDbLine
10
128.53881352293945
20
347.86048475172606
30
0
11
78.738813522936582
21
319.10844134608107
31
0
0
LINE
5
392
100
AcDbEntity
8
0
100
AcDbLine
10
178.33881352293574
20
347.86048475172328
30
0
11
228.13881352293294
21
319.10844134608089
31
0
0
LINE
5
393
100
AcDbEntity
8
0
100
AcDbLine
10
178.33881352293574
20
347.86048475172328
30
0
11
128.53881352293291
21
319.10844134607822
31
0
0
LINE
5
394
100
AcDbEntity
8
0
100
AcDbLine
10
228.13881352293436
20
347.86048475172765
30
0
11
277.93881352293658
21
319.10844134608323
31
0
0
LINE
5
395
100
AcDbEntity
8
0
100
AcDbLine
10
228.13881352293436
20
347.86048475172765
30
0
11
178.33881352293659
21
319.10844134608556
31
0
0
LINE
5
396
100
AcDbEntity
8
0
100
AcDbLine
10
277.93881352293164
20
347.8604847517239
30
0
11
327.73881352293296
21
319.10844134607896
31
0
0
LINE
5
397
100
AcDbEntity
8
0
100
AcDbLine
10
277.93881352293164
20
347.8604847517239
30
0
11
228.13881352293294
21
319.10844134608089
31
0
0
LINE
5
398
100
AcDbEntity
8
0
100
AcDbLine
10
327.73881352293745
20
347.86048475172629
30
0
11
377.53881352293661
21
319.10844134608374
31
0
0
LINE
5
399
100
AcDbEntity
8
0
100
AcDbLine
10
327.73881352293745
20
347.86048475172629
30
0
11
277.93881352293658
21
319.10844134608323
31
0
0
LINE
5
400
100
AcDbEntity
8
0
100
AcDbLine
10
377.53881352293826
20
347.86048475172527
30
0
11
427.33881352293292
21
319.10844134608521
31
0
0
LINE
5
401
100
AcDbEntity
8
0
100
AcDbLine
10
377.53881352293826
20
347.86048475172527
30
0
11
327.73881352293296
21
319.10844134607896
31
0
0
LINE
5
402
100
AcDbEntity
8
0
100
AcDbLine
10
427.33881352293679
20
347.86048475172663
30
0
11
477.13881352293663
21
319.10844134608374
31
0
0
LINE
5
403
100
AcDbEntity
8
0
100
AcDbLine
10
377.53881352293661
20
319.10844134608374
30
0
11
427.33881352293679
21
347.86048475172663
31
0
0
LINE
5
404
100
AcDbEntity
8
0
100
AcDbLine
10
477.13881352292736
20
347.86048475172424
30
0
11
505
21
331.77482123924324
31
0
0
LINE
5
405
100
AcDbEntity
8
0
100
AcDbLine
10
427.33881352293292
20
319.10844134608521
30
0
11
477.13881352292736
21
347.86048475172424
31
0
0
LINE
5
406
100
AcDbEntity
8
0
100
AcDbLine
10
505
20
335.19410485855826
30
0
11
477.13881352293663
21
319.10844134608374
31
0
0
LINE
5
407
100
AcDbEntity
8
0
100
AcDbLine
10
81.53179422013406
20
375
30
0
11
103.63881352293728
21
362.23650645454632
31
0
0
LINE
5
408
100
AcDbEntity
8
0
100
AcDbLine
10
4.0388135229289546
20
362.23650645455103
30
0
11
26.145832825727222
21
375
31
0
0
LINE
5
409
100
AcDbEntity
8
0
100
AcDbLine
10
131.33179422013441
20
375
30
0
11
153.43881352293727
21
362.23650645454654
31
0
0
LINE
5
410
100
AcDbEntity
8
0
100
AcDbLine
10
75.945832825737938
20
375
30
0
11
53.838813522937272
21
362.23650645455564
31
0
0
LINE
5
411
100
AcDbEntity
8
0
100
AcDbLine
10
181.13179422013346
20
375
30
0
11
203.23881352293728
21
362.23650645454592
31
0
0
LINE
5
412
100
AcDbEntity
8
0
100
AcDbLine
10
125.74583282573616
20
375
30
0
11
103.63881352293728
21
362.23650645454632
31
0
0
LINE
5
413
100
AcDbEntity
8
0
100
AcDbLine
10
230.93179422014131
20
375
30
0
11
253.03881352293729
21
362.23650645455098
31
0
0
LINE
5
414
100
AcDbEntity
8
0
100
AcDbLine
10
175.54583282574026
20
375
30
0
11
153.43881352293727
21
362.23650645454654
31
0
0
LINE
5
415
100
AcDbEntity
8
0
100
AcDbLine
10
280.73179422013857
20
375
30
0
11
302.8388135229373
21
362.23650645454916
31
0
0
LINE
5
416
100
AcDbEntity
8
0
100
AcDbLine
10
225.34583282573033
20
375
30
0
11
203.23881352293728
21
362.23650645454592
31
0
0
LINE
5
417
100
AcDbEntity
8
0
100
AcDbLine
10
330.53179422013591
20
375
30
0
11
352.63881352293731
21
362.23650645454745
31
0
0
LINE
5
418
100
AcDbEntity
8
0
100
AcDbLine
10
275.14583282573494
20
375
30
0
11
253.03881352293729
21
362.23650645455098
31
0
0
LINE
5
419
100
AcDbEntity
8
0
100
AcDbLine
10
380.33179422013416
20
375
30
0
11
402.43881352293727
21
362.23650645454632
31
0
0
LINE
5
420
100
AcDbEntity
8
0
100
AcDbLine
10
324.9458328257345
20
375
30
0
11
302.8388135229373
21
362.23650645454916
31
0
0
LINE
5
421
100
AcDbEntity
8
0
100
AcDbLine
10
430.13179422013707
20
375
30
0
11
452.23881352293733
21
362.23650645454825
31
0
0
LINE
5
422
100
AcDbEntity
8
0
100
AcDbLine
10
479.93179422014146
20
375
30
0
11
502.03881352293735
21
362.23650645455103
31
0
0
LINE
5
423
100
AcDbEntity
8
0
100
AcDbLine
10
374.74583282573963
20
375
30
0
11
352.63881352293731
21
362.23650645454745
31
0
0
LINE
5
424
100
AcDbEntity
8
0
100
AcDbLine
10
424.5458328257339
20
375
30
0
11
402.43881352293727
21
362.23650645454632
31
0
0
LINE
5
425
100
AcDbEntity
8
0
100
AcDbLine
10
452.23881352293733
20
362.23650645454825
30
0
11
474.34583282573294
21
375
31
0
0
LINE
5
426
100
AcDbEntity
8
0
100
AcDbLine
10
502.03881352293735
20
362.23650645455103
30
0
11
505
21
363.94614826420377
31
0
0
LINE
5
427
100
AcDbEntity
8
0
100
AcDbLine
10
502.03881352293774
20
304.73241964325791
30
0
11
505
21
303.02277783360535
31
0
0
LINE
5
428
100
AcDbEntity
8
0
100
AcDbLine
10
505
20
277.69001804727083
30
0
11
502.03881352293735
21
275.98037623761809
31
0
0
LINE
5
429
100
AcDbEntity
8
0
100
AcDbLine
10
502.03881352293763
20
45.964028992467235
30
0
11
505
21
44.254387182814696
31
0
0
LINE
5
430
100
AcDbEntity
8
0
100
AcDbLine
10
505
20
18.921627396470129
30
0
11
502.03881352294439
21
17.211985586820951
31
0
0
ENDSEC
0
SECTION
2
OBJECTS
0
DICTIONARY
5
C
100
AcDbDictionary
3
ACAD_GROUP
350
D
3
ACAD_MLINESTYLE
350
17
0
DICTIONARY
5
D
100
AcDbDictionary
0
DICTIONARY
5
1A
330
C
100
AcDbDictionary
0
DICTIONARY
5
17
100
AcDbDictionary
0
ENDSEC
0
EOF
