0
SECTION
2
HEADER
9
$INSUNITS
70
4
9
$ACADVER
1
AC1014
9
$HANDSEED
5
FFFF
0
ENDSEC
0
SECTION
2
TABLES
0
TABLE
2
VPORT
5
8
100
AcDbSymbolTable
0
ENDTAB
0
TABLE
2
LTYPE
5
5
100
AcDbSymbolTable
0
LTYPE
5
14
100
AcDbSymbolTableRecord
100
AcDbLinetypeTableRecord
2
BYBLOCK
70
0
0
LTYPE
5
15
100
AcDbSymbolTableRecord
100
AcDbLinetypeTableRecord
2
BYLAYER
70
0
0
ENDTAB
0
TABLE
2
LAYER
5
2
100
AcDbSymbolTable
70
2
0
LAYER
5
50
100
AcDbSymbolTableRecord
100
AcDbLayerTableRecord
2
0
70
0
6
CONTINUOUS
0
ENDTAB
0
TABLE
2
STYLE
5
3
100
AcDbSymbolTable
70
1
0
STYLE
5
11
100
AcDbSymbolTableRecord
100
AcDbTextStyleTableRecord
2
STANDARD
70
0
0
ENDTAB
0
TABLE
2
VIEW
5
6
100
AcDbSymbolTable
70
0
0
ENDTAB
0
TABLE
2
UCS
5
7
100
AcDbSymbolTable
70
0
0
ENDTAB
0
TABLE
2
APPID
5
9
100
AcDbSymbolTable
70
2
0
APPID
5
12
100
AcDbSymbolTableRecord
100
AcDbRegAppTableRecord
2
ACAD
70
0
0
ENDTAB
0
TABLE
2
DIMSTYLE
5
A
100
AcDbSymbolTable
70
1
0
ENDTAB
0
TABLE
2
BLOCK_RECORD
5
1
100
AcDbSymbolTable
70
1
0
BLOCK_RECORD
5
1F
100
AcDbSymbolTableRecord
100
AcDbBlockTableRecord
2
*MODEL_SPACE
0
BLOCK_RECORD
5
1B
100
AcDbSymbolTableRecord
100
AcDbBlockTableRecord
2
*PAPER_SPACE
0
ENDTAB
0
ENDSEC
0
SECTION
2
BLOCKS
0
BLOCK
5
20
100
AcDbEntity
100
AcDbBlockBegin
2
*MODEL_SPACE
0
ENDBLK
5
21
100
AcDbEntity
100
AcDbBlockEnd
0
BLOCK
5
1C
100
AcDbEntity
100
AcDbBlockBegin
2
*PAPER_SPACE
0
ENDBLK
5
1D
100
AcDbEntity
100
AcDbBlockEnd
0
ENDSEC
0
SECTION
2
ENTITIES
0
LINE
5
100
100
AcDbEntity
8
0
100
AcDbLine
10
150
20
90
30
0
11
75
21
90
31
0
0
CIRCLE
5
101
100
AcDbEntity
8
0
100
AcDbCircle
10
35.5
20
45
30
0
40
27.748000000000005
0
CIRCLE
5
102
100
AcDbEntity
8
0
100
AcDbCircle
10
114.5
20
45
30
0
40
27.748000000000005
0
LINE
5
103
100
AcDbEntity
8
0
100
AcDbLine
10
150
20
0
30
0
11
150
21
90
31
0
0
LINE
5
104
100
AcDbEntity
8
0
100
AcDbLine
10
150
20
0
30
0
11
75
21
0
31
0
0
CIRCLE
5
105
100
AcDbEntity
8
0
100
AcDbCircle
10
75
20
25
30
0
40
1.5000000000000002
0
LINE
5
106
100
AcDbEntity
8
0
100
AcDbLine
10
0
20
0
30
0
11
0
21
90
31
0
0
LINE
5
107
100
AcDbEntity
8
0
100
AcDbLine
10
0
20
90
30
0
11
75
21
90
31
0
0
LINE
5
108
100
AcDbEntity
8
0
100
AcDbLine
10
0
20
0
30
0
11
75
21
0
31
0
0
LINE
5
109
100
AcDbEntity
8
0
100
AcDbLine
10
-145.23455667826383
20
5.0000000000001066
30
0
11
-145.2345566782638
21
45.000000000000107
31
0
0
LINE
5
110
100
AcDbEntity
8
0
100
AcDbLine
10
-150.23455667826383
20
1.0658141036401503e-13
30
0
11
-150.2345566782638
21
45.000000000000107
31
0
0
LWPOLYLINE
5
111
100
AcDbEntity
8
0
100
AcDbPolyline
90
4
70
1
43
0.0
10
-23.234556678263836
20
22.20000000000001
10
-46.834556678263908
20
22.199999999999992
10
-46.834556678263837
20
15.000000000000618
10
-23.234556678263836
20
15.000000000000009
0
LINE
5
112
100
AcDbEntity
8
0
100
AcDbLine
10
-75.234556678263843
20
3.5527136788005009e-14
30
0
11
-0.23455667826383586
21
2.9143354396410359e-15
31
0
0
LINE
5
113
100
AcDbEntity
8
0
100
AcDbLine
10
-75.234556678263843
20
3.5527136788005009e-14
30
0
11
-150.23455667826383
21
1.0658141036401503e-13
31
0
0
CIRCLE
5
114
100
AcDbEntity
8
0
100
AcDbCircle
10
-135.2345566782638
20
15.000000000000089
30
0
40
1
0
CIRCLE
5
115
100
AcDbEntity
8
0
100
AcDbCircle
10
-15.234556678263854
20
15.000000000000007
30
0
40
1
0
LINE
5
116
100
AcDbEntity
8
0
100
AcDbLine
10
-145.23455667826383
20
5.0000000000001066
30
0
11
-75.234556678263829
21
5.0000000000000355
31
0
0
LINE
5
117
100
AcDbEntity
8
0
100
AcDbLine
10
-75.234556678263772
20
90.000000000000114
30
0
11
-150.23455667826377
21
90.000000000000114
31
0
0
LINE
5
118
100
AcDbEntity
8
0
100
AcDbLine
10
-145.23455667826377
20
85.000000000000114
30
0
11
-75.234556678263786
21
85.000000000000114
31
0
0
LINE
5
119
100
AcDbEntity
8
0
100
AcDbLine
10
-0.23455667826383586
20
2.9143354396410359e-15
30
0
11
-0.23455667826381366
21
45
31
0
0
LINE
5
120
100
AcDbEntity
8
0
100
AcDbLine
10
-5.2345566782637682
20
85
30
0
11
-75.234556678263772
21
85.000000000000114
31
0
0
LINE
5
121
100
AcDbEntity
8
0
100
AcDbLine
10
-0.23455667826376481
20
90
30
0
11
-0.23455667826381366
21
45
31
0
0
LINE
5
122
100
AcDbEntity
8
0
100
AcDbLine
10
-5.2345566782637682
20
85
30
0
11
-5.2345566782637967
21
45.000000000000007
31
0
0
LINE
5
123
100
AcDbEntity
8
0
100
AcDbLine
10
-5.2345566782638322
20
5.0000000000000098
30
0
11
-5.2345566782637967
21
45.000000000000007
31
0
0
LINE
5
124
100
AcDbEntity
8
0
100
AcDbLine
10
-5.2345566782638322
20
5.0000000000000098
30
0
11
-75.234556678263843
21
5.0000000000000453
31
0
0
CIRCLE
5
125
100
AcDbEntity
8
0
100
AcDbCircle
10
-15.234556678263784
20
74.999999999999929
30
0
40
1
0
LINE
5
126
100
AcDbEntity
8
0
100
AcDbLine
10
-75.234556678263772
20
90.000000000000114
30
0
11
-0.23455667826376481
21
90
31
0
0
LWPOLYLINE
5
127
100
AcDbEntity
8
0
100
AcDbPolyline
90
4
70
1
43
0.0
10
-124.10787276949235
20
60.62879798690274
10
-124.10787276949235
20
74.878797986902725
10
-116.10787276949233
20
74.878797986906307
10
-116.10787276949233
20
60.62879798690274
0
LINE
5
128
100
AcDbEntity
8
0
100
AcDbLine
10
-150.23455667826377
20
90.000000000000114
30
0
11
-150.2345566782638
21
45.000000000000107
31
0
0
CIRCLE
5
129
100
AcDbEntity
8
0
100
AcDbCircle
10
-135.23455667826377
20
75.000000000000014
30
0
40
1
0
LINE
5
130
100
AcDbEntity
8
0
100
AcDbLine
10
-145.23455667826377
20
85.000000000000114
30
0
11
-145.2345566782638
21
45.000000000000107
31
0
0
CIRCLE
5
131
100
AcDbEntity
8
0
100
AcDbCircle
10
-103.10787276949235
20
67.75379798690372
30
0
40
4.25
0
ENDSEC
0
SECTION
2
OBJECTS
0
DICTIONARY
5
C
100
AcDbDictionary
3
ACAD_GROUP
350
D
3
ACAD_MLINESTYLE
350
17
0
DICTIONARY
5
D
100
AcDbDictionary
0
DICTIONARY
5
1A
330
C
100
AcDbDictionary
0
DICTIONARY
5
17
100
AcDbDictionary
0
ENDSEC
0
EOF
